  0
SECTION
  2
HEADER
  9
$ACADVER
  1
AC1024
  9
$ACADMAINTVER
 70
   155
  9
$DWGCODEPAGE
  3
ANSI_1252
  9
$LASTSAVEDBY
  1
Nicole
  9
$INSBASE
 10
0.0
 20
0.0
 30
0.0
  9
$EXTMIN
 10
-47.16964912883013
 20
-36.0010274650171
 30
0.0
  9
$EXTMAX
 10
7.062519174771384
 20
0.6249999999980124
 30
0.0
  9
$LIMMIN
 10
0.0
 20
0.0
  9
$LIMMAX
 10
12.0
 20
9.0
  9
$ORTHOMODE
 70
     1
  9
$REGENMODE
 70
     1
  9
$FILLMODE
 70
     1
  9
$QTEXTMODE
 70
     0
  9
$MIRRTEXT
 70
     0
  9
$LTSCALE
 40
1.0
  9
$ATTMODE
 70
     1
  9
$TEXTSIZE
 40
0.2
  9
$TRACEWID
 40
0.05
  9
$TEXTSTYLE
  7
Standard
  9
$CLAYER
  8
5024A.65G
  9
$CELTYPE
  6
ByLayer
  9
$CECOLOR
 62
   256
  9
$CELTSCALE
 40
1.0
  9
$DISPSILH
 70
     0
  9
$DIMSCALE
 40
1.0
  9
$DIMASZ
 40
0.18
  9
$DIMEXO
 40
0.0625
  9
$DIMDLI
 40
0.38
  9
$DIMRND
 40
0.0
  9
$DIMDLE
 40
0.0
  9
$DIMEXE
 40
0.18
  9
$DIMTP
 40
0.0
  9
$DIMTM
 40
0.0
  9
$DIMTXT
 40
0.18
  9
$DIMCEN
 40
0.09
  9
$DIMTSZ
 40
0.0
  9
$DIMTOL
 70
     0
  9
$DIMLIM
 70
     0
  9
$DIMTIH
 70
     1
  9
$DIMTOH
 70
     1
  9
$DIMSE1
 70
     0
  9
$DIMSE2
 70
     0
  9
$DIMTAD
 70
     0
  9
$DIMZIN
 70
     0
  9
$DIMBLK
  1

  9
$DIMASO
 70
     1
  9
$DIMSHO
 70
     1
  9
$DIMPOST
  1

  9
$DIMAPOST
  1

  9
$DIMALT
 70
     0
  9
$DIMALTD
 70
     2
  9
$DIMALTF
 40
25.4
  9
$DIMLFAC
 40
1.0
  9
$DIMTOFL
 70
     0
  9
$DIMTVP
 40
0.0
  9
$DIMTIX
 70
     0
  9
$DIMSOXD
 70
     0
  9
$DIMSAH
 70
     0
  9
$DIMBLK1
  1

  9
$DIMBLK2
  1

  9
$DIMSTYLE
  2
Standard
  9
$DIMCLRD
 70
     0
  9
$DIMCLRE
 70
     0
  9
$DIMCLRT
 70
     0
  9
$DIMTFAC
 40
1.0
  9
$DIMGAP
 40
0.09
  9
$DIMJUST
 70
     0
  9
$DIMSD1
 70
     0
  9
$DIMSD2
 70
     0
  9
$DIMTOLJ
 70
     1
  9
$DIMTZIN
 70
     0
  9
$DIMALTZ
 70
     0
  9
$DIMALTTZ
 70
     0
  9
$DIMUPT
 70
     0
  9
$DIMDEC
 70
     4
  9
$DIMTDEC
 70
     4
  9
$DIMALTU
 70
     4
  9
$DIMALTTD
 70
     2
  9
$DIMTXSTY
  7
Standard
  9
$DIMAUNIT
 70
     0
  9
$DIMADEC
 70
     0
  9
$DIMALTRND
 40
0.0
  9
$DIMAZIN
 70
     0
  9
$DIMDSEP
 70
    46
  9
$DIMATFIT
 70
     3
  9
$DIMFRAC
 70
     0
  9
$DIMLDRBLK
  1

  9
$DIMLUNIT
 70
     4
  9
$DIMLWD
 70
    -2
  9
$DIMLWE
 70
    -2
  9
$DIMTMOVE
 70
     0
  9
$DIMFXL
 40
1.0
  9
$DIMFXLON
 70
     0
  9
$DIMJOGANG
 40
0.7853981633974483
  9
$DIMTFILL
 70
     0
  9
$DIMTFILLCLR
 70
     0
  9
$DIMARCSYM
 70
     0
  9
$DIMLTYPE
  6

  9
$DIMLTEX1
  6

  9
$DIMLTEX2
  6

  9
$DIMTXTDIRECTION
 70
     0
  9
$LUNITS
 70
     4
  9
$LUPREC
 70
     4
  9
$SKETCHINC
 40
0.1
  9
$FILLETRAD
 40
0.0
  9
$AUNITS
 70
     0
  9
$AUPREC
 70
     0
  9
$MENU
  1
.
  9
$ELEVATION
 40
0.0
  9
$PELEVATION
 40
0.0
  9
$THICKNESS
 40
0.0
  9
$LIMCHECK
 70
     0
  9
$CHAMFERA
 40
0.0
  9
$CHAMFERB
 40
0.0
  9
$CHAMFERC
 40
0.0
  9
$CHAMFERD
 40
0.0
  9
$SKPOLY
 70
     0
  9
$TDCREATE
 40
2458099.639480544
  9
$TDUCREATE
 40
2458099.847813877
  9
$TDUPDATE
 40
2458099.653180579
  9
$TDUUPDATE
 40
2458099.861513912
  9
$TDINDWG
 40
0.0021567708
  9
$TDUSRTIMER
 40
0.0021567708
  9
$USRTIMER
 70
     1
  9
$ANGBASE
 50
0.0
  9
$ANGDIR
 70
     0
  9
$PDMODE
 70
     0
  9
$PDSIZE
 40
0.0
  9
$PLINEWID
 40
0.0
  9
$SPLFRAME
 70
     0
  9
$SPLINETYPE
 70
     6
  9
$SPLINESEGS
 70
     8
  9
$HANDSEED
  5
410
  9
$SURFTAB1
 70
     6
  9
$SURFTAB2
 70
     6
  9
$SURFTYPE
 70
     6
  9
$SURFU
 70
     6
  9
$SURFV
 70
     6
  9
$UCSBASE
  2

  9
$UCSNAME
  2

  9
$UCSORG
 10
0.0
 20
0.0
 30
0.0
  9
$UCSXDIR
 10
1.0
 20
0.0
 30
0.0
  9
$UCSYDIR
 10
0.0
 20
1.0
 30
0.0
  9
$UCSORTHOREF
  2

  9
$UCSORTHOVIEW
 70
     0
  9
$UCSORGTOP
 10
0.0
 20
0.0
 30
0.0
  9
$UCSORGBOTTOM
 10
0.0
 20
0.0
 30
0.0
  9
$UCSORGLEFT
 10
0.0
 20
0.0
 30
0.0
  9
$UCSORGRIGHT
 10
0.0
 20
0.0
 30
0.0
  9
$UCSORGFRONT
 10
0.0
 20
0.0
 30
0.0
  9
$UCSORGBACK
 10
0.0
 20
0.0
 30
0.0
  9
$PUCSBASE
  2

  9
$PUCSNAME
  2

  9
$PUCSORG
 10
0.0
 20
0.0
 30
0.0
  9
$PUCSXDIR
 10
1.0
 20
0.0
 30
0.0
  9
$PUCSYDIR
 10
0.0
 20
1.0
 30
0.0
  9
$PUCSORTHOREF
  2

  9
$PUCSORTHOVIEW
 70
     0
  9
$PUCSORGTOP
 10
0.0
 20
0.0
 30
0.0
  9
$PUCSORGBOTTOM
 10
0.0
 20
0.0
 30
0.0
  9
$PUCSORGLEFT
 10
0.0
 20
0.0
 30
0.0
  9
$PUCSORGRIGHT
 10
0.0
 20
0.0
 30
0.0
  9
$PUCSORGFRONT
 10
0.0
 20
0.0
 30
0.0
  9
$PUCSORGBACK
 10
0.0
 20
0.0
 30
0.0
  9
$USERI1
 70
     0
  9
$USERI2
 70
     0
  9
$USERI3
 70
     0
  9
$USERI4
 70
     0
  9
$USERI5
 70
     0
  9
$USERR1
 40
0.0
  9
$USERR2
 40
0.0
  9
$USERR3
 40
0.0
  9
$USERR4
 40
0.0
  9
$USERR5
 40
0.0
  9
$WORLDVIEW
 70
     1
  9
$SHADEDGE
 70
     3
  9
$SHADEDIF
 70
    70
  9
$TILEMODE
 70
     1
  9
$MAXACTVP
 70
    64
  9
$PINSBASE
 10
0.0
 20
0.0
 30
0.0
  9
$PLIMCHECK
 70
     0
  9
$PEXTMIN
 10
1.000000000000000E+20
 20
1.000000000000000E+20
 30
1.000000000000000E+20
  9
$PEXTMAX
 10
-1.000000000000000E+20
 20
-1.000000000000000E+20
 30
-1.000000000000000E+20
  9
$PLIMMIN
 10
0.0
 20
0.0
  9
$PLIMMAX
 10
12.0
 20
9.0
  9
$UNITMODE
 70
     0
  9
$VISRETAIN
 70
     1
  9
$PLINEGEN
 70
     0
  9
$PSLTSCALE
 70
     1
  9
$TREEDEPTH
 70
  3020
  9
$CMLSTYLE
  2
Standard
  9
$CMLJUST
 70
     0
  9
$CMLSCALE
 40
1.0
  9
$PROXYGRAPHICS
 70
     1
  9
$MEASUREMENT
 70
     0
  9
$CELWEIGHT
370
    -1
  9
$ENDCAPS
280
     0
  9
$JOINSTYLE
280
     0
  9
$LWDISPLAY
290
     0
  9
$INSUNITS
 70
     1
  9
$HYPERLINKBASE
  1

  9
$STYLESHEET
  1

  9
$XEDIT
290
     1
  9
$CEPSNTYPE
380
     0
  9
$PSTYLEMODE
290
     1
  9
$FINGERPRINTGUID
  2
{B44801B6-197F-45D5-9C2A-67F7C9C96B2D}
  9
$VERSIONGUID
  2
{39D01FBE-FEA4-4CD3-9EE5-5E2780E1EF23}
  9
$EXTNAMES
290
     1
  9
$PSVPSCALE
 40
0.0
  9
$OLESTARTUP
290
     0
  9
$SORTENTS
280
   127
  9
$INDEXCTL
280
     0
  9
$HIDETEXT
280
     1
  9
$XCLIPFRAME
280
     2
  9
$HALOGAP
280
     0
  9
$OBSCOLOR
 70
   257
  9
$OBSLTYPE
280
     0
  9
$INTERSECTIONDISPLAY
280
     0
  9
$INTERSECTIONCOLOR
 70
   257
  9
$DIMASSOC
280
     2
  9
$PROJECTNAME
  1

  9
$CAMERADISPLAY
290
     0
  9
$LENSLENGTH
 40
50.0
  9
$CAMERAHEIGHT
 40
0.0
  9
$STEPSPERSEC
 40
2.0
  9
$STEPSIZE
 40
6.0
  9
$3DDWFPREC
 40
2.0
  9
$PSOLWIDTH
 40
0.25
  9
$PSOLHEIGHT
 40
4.0
  9
$LOFTANG1
 40
1.570796326794896
  9
$LOFTANG2
 40
1.570796326794896
  9
$LOFTMAG1
 40
0.0
  9
$LOFTMAG2
 40
0.0
  9
$LOFTPARAM
 70
     7
  9
$LOFTNORMALS
280
     1
  9
$LATITUDE
 40
0.0
  9
$LONGITUDE
 40
0.0
  9
$NORTHDIRECTION
 40
0.0
  9
$TIMEZONE
 70
     0
  9
$LIGHTGLYPHDISPLAY
280
     1
  9
$TILEMODELIGHTSYNCH
280
     1
  9
$CMATERIAL
347
11
  9
$SOLIDHIST
280
     0
  9
$SHOWHIST
280
     1
  9
$DWFFRAME
280
     2
  9
$DGNFRAME
280
     0
  9
$REALWORLDSCALE
290
     1
  9
$INTERFERECOLOR
 62
     1
  9
$INTERFEREOBJVS
345
33
  9
$INTERFEREVPVS
346
30
  9
$CSHADOW
280
     0
  9
$SHADOWPLANELOCATION
 40
0.0
  0
ENDSEC
  0
SECTION
  2
CLASSES
  0
CLASS
  1
ACDBDICTIONARYWDFLT
  2
AcDbDictionaryWithDefault
  3
ObjectDBX Classes
 90
        0
 91
        1
280
     0
281
     0
  0
CLASS
  1
MATERIAL
  2
AcDbMaterial
  3
ObjectDBX Classes
 90
     1153
 91
        3
280
     0
281
     0
  0
CLASS
  1
VISUALSTYLE
  2
AcDbVisualStyle
  3
ObjectDBX Classes
 90
     4095
 91
       24
280
     0
281
     0
  0
CLASS
  1
SCALE
  2
AcDbScale
  3
ObjectDBX Classes
 90
     1153
 91
       17
280
     0
281
     0
  0
CLASS
  1
TABLESTYLE
  2
AcDbTableStyle
  3
ObjectDBX Classes
 90
     4095
 91
        1
280
     0
281
     0
  0
CLASS
  1
MLEADERSTYLE
  2
AcDbMLeaderStyle
  3
ACDB_MLEADERSTYLE_CLASS
 90
     4095
 91
        1
280
     0
281
     0
  0
CLASS
  1
ACDBSECTIONVIEWSTYLE
  2
AcDbSectionViewStyle
  3
ObjectDBX Classes
 90
     1025
 91
        1
280
     0
281
     0
  0
CLASS
  1
ACDBDETAILVIEWSTYLE
  2
AcDbDetailViewStyle
  3
ObjectDBX Classes
 90
     1025
 91
        1
280
     0
281
     0
  0
CLASS
  1
RASTERVARIABLES
  2
AcDbRasterVariables
  3
ISM
 90
        0
 91
        1
280
     0
281
     0
  0
CLASS
  1
DICTIONARYVAR
  2
AcDbDictionaryVar
  3
ObjectDBX Classes
 90
        0
 91
        5
280
     0
281
     0
  0
CLASS
  1
SORTENTSTABLE
  2
AcDbSortentsTable
  3
ObjectDBX Classes
 90
        0
 91
        3
280
     0
281
     0
  0
CLASS
  1
SOLID_BACKGROUND
  2
AcDbSolidBackground
  3
SCENEOE
 90
     4095
 91
        1
280
     0
281
     0
  0
CLASS
  1
NPOCOLLECTION
  2
AcDbImpNonPersistentObjectsCollection
  3
ObjectDBX Classes
 90
     1153
 91
        1
280
     0
281
     0
  0
CLASS
  1
CELLSTYLEMAP
  2
AcDbCellStyleMap
  3
ObjectDBX Classes
 90
     1152
 91
        1
280
     0
281
     0
  0
ENDSEC
  0
SECTION
  2
TABLES
  0
TABLE
  2
VPORT
  5
8
330
0
100
AcDbSymbolTable
 70
     1
  0
VPORT
  5
57
330
8
100
AcDbSymbolTableRecord
100
AcDbViewportTableRecord
  2
*Active
 70
     0
 10
0.0
 20
0.0
 11
1.0
 21
1.0
 12
0.0
 22
0.0
 13
0.0
 23
0.0
 14
1.0
 24
1.0
 15
0.0
 25
0.0
 16
-0.0000000000000497
 26
0.0
 36
218.596291955733
 17
-20.05356497702974
 27
-17.68934680241734
 37
0.0
 40
65.44003876577552
 41
2.587837837837837
 42
50.0
 43
0.0
 44
0.0
 50
0.0
 51
0.0
 71
     0
 72
  1000
 73
     1
 74
     1
 75
     0
 76
     0
 77
     0
 78
     0
281
     0
 65
     1
110
0.0
120
0.0
130
0.0
111
1.0
121
0.0
131
0.0
112
0.0
122
1.0
132
0.0
 79
     0
146
0.0
348
2F
 60
     3
 61
     5
292
     1
282
     1
141
0.0
142
0.0
 63
   250
421
  3355443
1001
ACAD_NAV_VCDISPLAY
1070
     3
  0
ENDTAB
  0
TABLE
  2
LTYPE
  5
5
330
0
100
AcDbSymbolTable
 70
     1
  0
LTYPE
  5
5B
330
5
100
AcDbSymbolTableRecord
100
AcDbLinetypeTableRecord
  2
ByBlock
 70
     0
  3

 72
    65
 73
     0
 40
0.0
  0
LTYPE
  5
5C
330
5
100
AcDbSymbolTableRecord
100
AcDbLinetypeTableRecord
  2
ByLayer
 70
     0
  3

 72
    65
 73
     0
 40
0.0
  0
LTYPE
  5
5D
330
5
100
AcDbSymbolTableRecord
100
AcDbLinetypeTableRecord
  2
Continuous
 70
     0
  3
Solid line
 72
    65
 73
     0
 40
0.0
  0
ENDTAB
  0
TABLE
  2
LAYER
  5
2
330
0
100
AcDbSymbolTable
 70
     2
  0
LAYER
  5
54
330
2
100
AcDbSymbolTableRecord
100
AcDbLayerTableRecord
  2
0
 70
     0
 62
     7
  6
Continuous
370
    -3
390
F
347
21
  0
LAYER
  5
90
330
2
100
AcDbSymbolTableRecord
100
AcDbLayerTableRecord
  2
5024A.65G
 70
     0
 62
   255
  6
Continuous
370
     9
390
F
347
21
  0
ENDTAB
  0
TABLE
  2
STYLE
  5
3
330
0
100
AcDbSymbolTable
 70
     2
  0
STYLE
  5
55
330
3
100
AcDbSymbolTableRecord
100
AcDbTextStyleTableRecord
  2
Standard
 70
     0
 40
0.0
 41
1.0
 50
0.0
 71
     0
 42
0.2
  3
txt
  4

  0
ENDTAB
  0
TABLE
  2
VIEW
  5
6
330
0
100
AcDbSymbolTable
 70
     0
  0
ENDTAB
  0
TABLE
  2
UCS
  5
7
330
0
100
AcDbSymbolTable
 70
     0
  0
ENDTAB
  0
TABLE
  2
APPID
  5
9
330
0
100
AcDbSymbolTable
 70
     4
  0
APPID
  5
56
330
9
100
AcDbSymbolTableRecord
100
AcDbRegAppTableRecord
  2
ACAD
 70
     0
  0
APPID
  5
5E
330
9
100
AcDbSymbolTableRecord
100
AcDbRegAppTableRecord
  2
AcadAnnotative
 70
     0
  0
APPID
  5
78
330
9
100
AcDbSymbolTableRecord
100
AcDbRegAppTableRecord
  2
REVIT
 70
     0
  0
APPID
  5
DB
330
9
100
AcDbSymbolTableRecord
100
AcDbRegAppTableRecord
  2
ACAD_NAV_VCDISPLAY
 70
     0
  0
ENDTAB
  0
TABLE
  2
DIMSTYLE
  5
A
330
0
100
AcDbSymbolTable
 70
     2
100
AcDbDimStyleTable
 71
     0
  0
DIMSTYLE
105
58
330
A
100
AcDbSymbolTableRecord
100
AcDbDimStyleTableRecord
  2
Standard
 70
     0
340
55
  0
ENDTAB
  0
TABLE
  2
BLOCK_RECORD
  5
1
330
0
100
AcDbSymbolTable
 70
    10
  0
BLOCK_RECORD
  5
70
102
{ACAD_XDICTIONARY
360
CA
102
}
330
1
100
AcDbSymbolTableRecord
100
AcDbBlockTableRecord
  2
*Model_Space
340
73
 70
     0
280
     1
281
     0
  0
BLOCK_RECORD
  5
6C
330
1
100
AcDbSymbolTableRecord
100
AcDbBlockTableRecord
  2
*Paper_Space
340
6F
 70
     0
280
     1
281
     0
  0
BLOCK_RECORD
  5
74
330
1
100
AcDbSymbolTableRecord
100
AcDbBlockTableRecord
  2
*Paper_Space0
340
77
 70
     0
280
     1
281
     0
  0
BLOCK_RECORD
  5
279
330
1
100
AcDbSymbolTableRecord
100
AcDbBlockTableRecord
  2
AMSTD_Transitional_5024A.65G_Plan VIew
340
0
310
2800000020000000200000000100080000000000000400000000000000000000000000000000000000000000000080000080000000808000800000008000800080800000C0C0C000C0DCC000F0CAA6000020400000206000002080000020A0000020C0000020E00000400000004020000040400000406000004080000040A0
310
000040C0000040E00000600000006020000060400000606000006080000060A0000060C0000060E00000800000008020000080400000806000008080000080A0000080C0000080E00000A0000000A0200000A0400000A0600000A0800000A0A00000A0C00000A0E00000C0000000C0200000C0400000C0600000C0800000C0
310
A00000C0C00000C0E00000E0000000E0200000E0400000E0600000E0800000E0A00000E0C00000E0E00040000000400020004000400040006000400080004000A0004000C0004000E00040200000402020004020400040206000402080004020A0004020C0004020E000404000004040200040404000404060004040800040
310
40A0004040C0004040E00040600000406020004060400040606000406080004060A0004060C0004060E00040800000408020004080400040806000408080004080A0004080C0004080E00040A0000040A0200040A0400040A0600040A0800040A0A00040A0C00040A0E00040C0000040C0200040C0400040C0600040C08000
310
40C0A00040C0C00040C0E00040E0000040E0200040E0400040E0600040E0800040E0A00040E0C00040E0E00080000000800020008000400080006000800080008000A0008000C0008000E00080200000802020008020400080206000802080008020A0008020C0008020E00080400000804020008040400080406000804080
310
008040A0008040C0008040E00080600000806020008060400080606000806080008060A0008060C0008060E00080800000808020008080400080806000808080008080A0008080C0008080E00080A0000080A0200080A0400080A0600080A0800080A0A00080A0C00080A0E00080C0000080C0200080C0400080C0600080C0
310
800080C0A00080C0C00080C0E00080E0000080E0200080E0400080E0600080E0800080E0A00080E0C00080E0E000C0000000C0002000C0004000C0006000C0008000C000A000C000C000C000E000C0200000C0202000C0204000C0206000C0208000C020A000C020C000C020E000C0400000C0402000C0404000C0406000C0
310
408000C040A000C040C000C040E000C0600000C0602000C0604000C0606000C0608000C060A000C060C000C060E000C0800000C0802000C0804000C0806000C0808000C080A000C080C000C080E000C0A00000C0A02000C0A04000C0A06000C0A08000C0A0A000C0A0C000C0A0E000C0C00000C0C02000C0C04000C0C06000
310
C0C08000C0C0A000F0FBFF00A4A0A000808080000000FF0000FF000000FFFF00FF000000FF00FF00FFFF0000FFFFFF004949494949494949494949494949494949494949494949494949494949494949494949494949494949494949494949BC4949494949494949494949494949494949494949494949494949494949BCBC
310
BCBCBCBC4949494949494949494949494949494949494949494949BCBCBC494949494949BCBCBC4949494949494949494949494949494949494949BC49494949494949494949BC49494949494949494949494949494949494949BCBC49494949494949494949BCBC4949494949494949494949494949494949BCBC49494949
310
4949494949494949BCBC494949494949494949494949494949BC49BC494949494949494949494949BC49BC4949494949494949494949494949BCBC4949494949494949494949494949BCBC4949494949494949494949494949BC49494949494949494949494949494949BCBC494949494949494949494949BCBC4949494949
310
4949494949494949494949BCBC494949494949494949494949BC494949494949494949494949494949494949BC494949494949494949494949BC494949494949494949494949494949494949BC494949494949494949494949BC49494949494949494949494949494949494949BC49494949494949494949BC494949494949
310
4949494949494949494949494949BC49494949494949494949BC4949494949494949494949494949494949494949BC49494949494949494949BC4949494949494949494949494949494949494949BC49494949494949494949BC4949494949494949494949494949494949494949BC49494949494949494949BC4949494949
310
494949494949494949494949494949BC49494949494949494949BC4949494949494949494949494949494949494949BC4949494949494949494949BC49494949494949494949494949494949494949BC4949494949494949494949BC494949494949494949494949494949494949BC494949494949494949494949BC494949
310
494949494949494949494949494949BC494949494949494949494949BC494949494949494949494949494949494949BC49494949494949494949494949BC4949494949494949494949494949494949BC49494949494949494949494949BC49494949494949494949494949494949BC4949494949494949494949494949BC49
310
494949494949494949494949494949BC494949494949494949494949494949BC4949494949494949494949494949BC49494949494949494949494949494949BCBCBCBCBCBCBCBCBCBCBCBCBCBCBCBC49494949494949494949494949494949494949BCBC494949494949BCBC49494949494949494949494949494949494949
310
494949BCBC494949494949BCBC49494949494949494949494949494949494949494949494949494949494949494949494949494949494949
102
{BLKREFS
331
293
102
}
 70
     1
280
     1
281
     1
  0
BLOCK_RECORD
  5
294
330
1
100
AcDbSymbolTableRecord
100
AcDbBlockTableRecord
  2
AMSTD_Transitional_5024A.65G_Front View
340
0
310
2800000020000000200000000100080000000000000400000000000000000000000000000000000000000000000080000080000000808000800000008000800080800000C0C0C000C0DCC000F0CAA6000020400000206000002080000020A0000020C0000020E00000400000004020000040400000406000004080000040A0
310
000040C0000040E00000600000006020000060400000606000006080000060A0000060C0000060E00000800000008020000080400000806000008080000080A0000080C0000080E00000A0000000A0200000A0400000A0600000A0800000A0A00000A0C00000A0E00000C0000000C0200000C0400000C0600000C0800000C0
310
A00000C0C00000C0E00000E0000000E0200000E0400000E0600000E0800000E0A00000E0C00000E0E00040000000400020004000400040006000400080004000A0004000C0004000E00040200000402020004020400040206000402080004020A0004020C0004020E000404000004040200040404000404060004040800040
310
40A0004040C0004040E00040600000406020004060400040606000406080004060A0004060C0004060E00040800000408020004080400040806000408080004080A0004080C0004080E00040A0000040A0200040A0400040A0600040A0800040A0A00040A0C00040A0E00040C0000040C0200040C0400040C0600040C08000
310
40C0A00040C0C00040C0E00040E0000040E0200040E0400040E0600040E0800040E0A00040E0C00040E0E00080000000800020008000400080006000800080008000A0008000C0008000E00080200000802020008020400080206000802080008020A0008020C0008020E00080400000804020008040400080406000804080
310
008040A0008040C0008040E00080600000806020008060400080606000806080008060A0008060C0008060E00080800000808020008080400080806000808080008080A0008080C0008080E00080A0000080A0200080A0400080A0600080A0800080A0A00080A0C00080A0E00080C0000080C0200080C0400080C0600080C0
310
800080C0A00080C0C00080C0E00080E0000080E0200080E0400080E0600080E0800080E0A00080E0C00080E0E000C0000000C0002000C0004000C0006000C0008000C000A000C000C000C000E000C0200000C0202000C0204000C0206000C0208000C020A000C020C000C020E000C0400000C0402000C0404000C0406000C0
310
408000C040A000C040C000C040E000C0600000C0602000C0604000C0606000C0608000C060A000C060C000C060E000C0800000C0802000C0804000C0806000C0808000C080A000C080C000C080E000C0A00000C0A02000C0A04000C0A06000C0A08000C0A0A000C0A0C000C0A0E000C0C00000C0C02000C0C04000C0C06000
310
C0C08000C0C0A000F0FBFF00A4A0A000808080000000FF0000FF000000FFFF00FF000000FF00FF00FFFF0000FFFFFF0049494949494949494949494949494949494949494949494949494949494949494949494949494949494949494949494949494949494949494949494949494949494949494949494949494949494949
310
49494949494949494949494949494949494949494949494949494949494949494949494949494949494949494949494949494949494949494949494949494949494949494949494949494949494949494949494949494949494949494949494949494949494949494949494949494949494949494949494949494949494949
310
49494949494949494949494949494949494949494949494949494949494949494949494949494949494949494949494949494949494949494949494949494949494949494949494949494949494949494949494949494949494949494949494949494949494949494949494949494949494949494949494949494949494949
310
494949494949494949494949494949494949494949494949494949494949494949494949494949494949494949494949494949494949494949494949494949494949494949494949494949494949494949494949BCBCBCBCBCBCBCBCBCBCBCBCBCBCBCBCBCBCBCBCBCBCBCBCBCBCBCBCBCBC4949BC49494949494949494949
310
494949494949494949494949494949494949BC4949BCBCBCBCBCBCBCBCBCBCBCBCBCBCBCBCBCBCBCBCBCBCBCBCBCBCBCBCBCBC494949BC4949494949494949494949494949494949494949494949494949BC49494949BC4949494949494949494949494949494949494949494949494949BC49494949BCBCBCBCBCBCBCBCBC
310
BCBCBCBCBCBCBCBCBCBCBCBCBCBCBCBCBCBCBC494949494949494949494949494949494949494949494949494949494949494949494949494949494949494949494949494949494949494949494949494949494949494949494949494949494949494949494949494949494949494949494949494949494949494949494949
310
49494949494949494949494949494949494949494949494949494949494949494949494949494949494949494949494949494949494949494949494949494949494949494949494949494949494949494949494949494949494949494949494949494949494949494949494949494949494949494949494949494949494949
310
49494949494949494949494949494949494949494949494949494949494949494949494949494949494949494949494949494949494949494949494949494949494949494949494949494949494949494949494949494949494949494949494949494949494949494949494949494949494949494949494949494949494949
310
4949494949494949494949494949494949494949494949494949494949494949494949494949494949494949494949494949494949494949
102
{BLKREFS
331
3AA
102
}
 70
     1
280
     1
281
     1
  0
BLOCK_RECORD
  5
3AB
330
1
100
AcDbSymbolTableRecord
100
AcDbBlockTableRecord
  2
AMSTD_Transitional_5024A.65G_Side View
340
0
310
2800000020000000200000000100080000000000000400000000000000000000000000000000000000000000000080000080000000808000800000008000800080800000C0C0C000C0DCC000F0CAA6000020400000206000002080000020A0000020C0000020E00000400000004020000040400000406000004080000040A0
310
000040C0000040E00000600000006020000060400000606000006080000060A0000060C0000060E00000800000008020000080400000806000008080000080A0000080C0000080E00000A0000000A0200000A0400000A0600000A0800000A0A00000A0C00000A0E00000C0000000C0200000C0400000C0600000C0800000C0
310
A00000C0C00000C0E00000E0000000E0200000E0400000E0600000E0800000E0A00000E0C00000E0E00040000000400020004000400040006000400080004000A0004000C0004000E00040200000402020004020400040206000402080004020A0004020C0004020E000404000004040200040404000404060004040800040
310
40A0004040C0004040E00040600000406020004060400040606000406080004060A0004060C0004060E00040800000408020004080400040806000408080004080A0004080C0004080E00040A0000040A0200040A0400040A0600040A0800040A0A00040A0C00040A0E00040C0000040C0200040C0400040C0600040C08000
310
40C0A00040C0C00040C0E00040E0000040E0200040E0400040E0600040E0800040E0A00040E0C00040E0E00080000000800020008000400080006000800080008000A0008000C0008000E00080200000802020008020400080206000802080008020A0008020C0008020E00080400000804020008040400080406000804080
310
008040A0008040C0008040E00080600000806020008060400080606000806080008060A0008060C0008060E00080800000808020008080400080806000808080008080A0008080C0008080E00080A0000080A0200080A0400080A0600080A0800080A0A00080A0C00080A0E00080C0000080C0200080C0400080C0600080C0
310
800080C0A00080C0C00080C0E00080E0000080E0200080E0400080E0600080E0800080E0A00080E0C00080E0E000C0000000C0002000C0004000C0006000C0008000C000A000C000C000C000E000C0200000C0202000C0204000C0206000C0208000C020A000C020C000C020E000C0400000C0402000C0404000C0406000C0
310
408000C040A000C040C000C040E000C0600000C0602000C0604000C0606000C0608000C060A000C060C000C060E000C0800000C0802000C0804000C0806000C0808000C080A000C080C000C080E000C0A00000C0A02000C0A04000C0A06000C0A08000C0A0A000C0A0C000C0A0E000C0C00000C0C02000C0C04000C0C06000
310
C0C08000C0C0A000F0FBFF00A4A0A000808080000000FF0000FF000000FFFF00FF000000FF00FF00FFFF0000FFFFFF0049494949494949494949494949494949494949494949494949494949494949494949494949494949494949494949494949494949494949494949494949494949494949494949494949494949494949
310
49494949494949494949494949494949494949494949494949494949494949494949494949494949494949494949494949494949494949494949494949494949494949494949494949494949494949494949494949494949494949494949494949494949494949494949494949494949494949494949494949494949494949
310
49494949494949494949494949494949494949494949494949494949494949494949494949494949494949494949494949494949494949494949494949494949494949494949494949494949494949494949494949494949494949494949494949494949494949494949494949494949494949494949494949494949494949
310
4949494949494949494949494949494949494949494949494949494949494949494949494949494949494949494949494949494949494949494949494949494949494949494949494949494949494949494949494949494949494949494949494949494949494949494949494949494949494949BCBCBCBCBCBCBCBCBCBCBC
310
BCBCBCBCBCBCBCBCBCBCBCBCBCBCBCBCBCBCBC49494949BCBCBCBCBCBCBCBCBCBCBCBCBCBCBCBCBCBCBCBCBCBCBCBCBCBCBCBC49494949BC49494949494949494949494949494949494949494949494949BC4949494949BCBCBCBCBCBCBCBCBCBCBCBCBCBCBCBCBCBCBCBCBCBCBCBCBCBCBC49494949494949494949494949
310
49494949494949494949494949494949494949494949494949494949494949494949494949494949494949494949494949494949494949494949494949494949494949494949494949494949494949494949494949494949494949494949494949494949494949494949494949494949494949494949494949494949494949
310
49494949494949494949494949494949494949494949494949494949494949494949494949494949494949494949494949494949494949494949494949494949494949494949494949494949494949494949494949494949494949494949494949494949494949494949494949494949494949494949494949494949494949
310
49494949494949494949494949494949494949494949494949494949494949494949494949494949494949494949494949494949494949494949494949494949494949494949494949494949494949494949494949494949494949494949494949494949494949494949494949494949494949494949494949494949494949
310
4949494949494949494949494949494949494949494949494949494949494949494949494949494949494949494949494949494949494949
102
{BLKREFS
331
3D5
102
}
 70
     1
280
     1
281
     1
  0
ENDTAB
  0
ENDSEC
  0
SECTION
  2
BLOCKS
  0
BLOCK
  5
71
330
70
100
AcDbEntity
  8
0
100
AcDbBlockBegin
  2
*Model_Space
 70
     0
 10
0.0
 20
0.0
 30
0.0
  3
*Model_Space
  1

  0
ENDBLK
  5
72
330
70
100
AcDbEntity
  8
0
100
AcDbBlockEnd
  0
BLOCK
  5
6D
330
6C
100
AcDbEntity
 67
     1
  8
0
100
AcDbBlockBegin
  2
*Paper_Space
 70
     0
 10
0.0
 20
0.0
 30
0.0
  3
*Paper_Space
  1

  0
ENDBLK
  5
6E
330
6C
100
AcDbEntity
 67
     1
  8
0
100
AcDbBlockEnd
  0
BLOCK
  5
75
330
74
100
AcDbEntity
 67
     1
  8
0
100
AcDbBlockBegin
  2
*Paper_Space0
 70
     0
 10
0.0
 20
0.0
 30
0.0
  3
*Paper_Space0
  1

  0
ENDBLK
  5
76
330
74
100
AcDbEntity
 67
     1
  8
0
100
AcDbBlockEnd
  0
BLOCK
  5
27A
330
279
100
AcDbEntity
  8
0
100
AcDbBlockBegin
  2
AMSTD_Transitional_5024A.65G_Plan VIew
 70
     0
 10
0.0
 20
0.0
 30
0.0
  3
AMSTD_Transitional_5024A.65G_Plan VIew
  1

  0
LINE
  5
27C
330
279
100
AcDbEntity
  8
5024A.65G
100
AcDbLine
 10
-3.374999999999165
 20
-0.6350473311171957
 30
0.0
 11
-4.517320934829111
 21
-0.6350473311171921
 31
0.0
1001
REVIT
1002
{
1070
     1
1000
31103
1002
}
1002
{
1070
     2
1000
-2001350
1002
}
  0
ARC
  5
27D
330
279
100
AcDbEntity
  8
5024A.65G
100
AcDbCircle
 10
-4.517320934829113
 20
-1.385047331117187
 30
0.0
 40
0.7499999999999947
100
AcDbArc
 50
89.99999999999982
 51
150.7412376668871
1001
REVIT
1002
{
1070
     1
1000
31103
1002
}
1002
{
1070
     2
1000
-2001350
1002
}
  0
ARC
  5
27E
330
279
100
AcDbEntity
  8
5024A.65G
100
AcDbCircle
 10
7.117687903487581
 20
-7.903302982170554
 30
0.0
 40
14.08645707825721
100
AcDbArc
 50
150.7412376668878
 51
155.4360997014476
1001
REVIT
1002
{
1070
     1
1000
31103
1002
}
1002
{
1070
     2
1000
-2001350
1002
}
  0
LINE
  5
27F
330
279
100
AcDbEntity
  8
5024A.65G
100
AcDbLine
 10
-5.693919592624668
 20
-2.047452370761237
 30
0.0
 11
-5.78766959262468
 21
-2.047452370761237
 31
0.0
1001
REVIT
1002
{
1070
     1
1000
31103
1002
}
1002
{
1070
     2
1000
-2001350
1002
}
  0
ARC
  5
280
330
279
100
AcDbEntity
  8
5024A.65G
100
AcDbCircle
 10
7.023937903483597
 20
-7.903302982168537
 30
0.0
 40
14.08645707825276
100
AcDbArc
 50
155.4360997014483
 51
218.0001381066549
1001
REVIT
1002
{
1070
     1
1000
31103
1002
}
1002
{
1070
     2
1000
-2001350
1002
}
  0
ARC
  5
281
330
279
100
AcDbEntity
  8
5024A.65G
100
AcDbCircle
 10
0.0000000000007381
 20
-13.39103197286565
 30
0.0
 40
5.172935151016535
100
AcDbArc
 50
218.0001381066542
 51
321.9998618933441
1001
REVIT
1002
{
1070
     1
1000
31103
1002
}
1002
{
1070
     2
1000
-2001350
1002
}
  0
ARC
  5
282
330
279
100
AcDbEntity
  8
5024A.65G
100
AcDbCircle
 10
-7.023937903482124
 20
-7.903302982168537
 30
0.0
 40
14.08645707825277
100
AcDbArc
 50
321.9998618933439
 51
24.56390029855168
1001
REVIT
1002
{
1070
     1
1000
31103
1002
}
1002
{
1070
     2
1000
-2001350
1002
}
  0
LINE
  5
283
330
279
100
AcDbEntity
  8
5024A.65G
100
AcDbLine
 10
5.787669592626158
 20
-2.047452370761237
 30
0.0
 11
5.693919592626156
 21
-2.047452370761237
 31
0.0
1001
REVIT
1002
{
1070
     1
1000
31103
1002
}
1002
{
1070
     2
1000
-2001350
1002
}
  0
ARC
  5
284
330
279
100
AcDbEntity
  8
5024A.65G
100
AcDbCircle
 10
-7.117687903479785
 20
-7.903302982167367
 30
0.0
 40
14.08645707825013
100
AcDbArc
 50
24.56390029855087
 51
29.25876233311298
1001
REVIT
1002
{
1070
     1
1000
31103
1002
}
1002
{
1070
     2
1000
-2001350
1002
}
  0
ARC
  5
285
330
279
100
AcDbEntity
  8
5024A.65G
100
AcDbCircle
 10
4.517320934830594
 20
-1.385047331117183
 30
0.0
 40
0.7499999999999975
100
AcDbArc
 50
29.2587623331128
 51
89.99999999999987
1001
REVIT
1002
{
1070
     1
1000
31103
1002
}
1002
{
1070
     2
1000
-2001350
1002
}
  0
LINE
  5
286
330
279
100
AcDbEntity
  8
5024A.65G
100
AcDbLine
 10
4.517320934830596
 20
-0.6350473311171864
 30
0.0
 11
3.375000000000639
 21
-0.6350473311171827
 31
0.0
1001
REVIT
1002
{
1070
     1
1000
31103
1002
}
1002
{
1070
     2
1000
-2001350
1002
}
  0
LINE
  5
287
330
279
100
AcDbEntity
  8
5024A.65G
100
AcDbLine
 10
3.375000000000639
 20
-0.6350473311171827
 30
0.0
 11
3.375000000000641
 21
-0.0000000000009964
 31
0.0
1001
REVIT
1002
{
1070
     1
1000
31103
1002
}
1002
{
1070
     2
1000
-2001350
1002
}
  0
ARC
  5
288
330
279
100
AcDbEntity
  8
5024A.65G
100
AcDbCircle
 10
2.750000000000642
 20
-0.0000000000009938
 30
0.0
 40
0.625
100
AcDbArc
 50
359.9999999999994
 51
179.9999999999996
1001
REVIT
1002
{
1070
     1
1000
31103
1002
}
1002
{
1070
     2
1000
-2001350
1002
}
  0
LINE
  5
289
330
279
100
AcDbEntity
  8
5024A.65G
100
AcDbLine
 10
2.125000000000643
 20
-0.0000000000009902
 30
0.0
 11
2.125000000000643
 21
-0.6350473311171787
 31
0.0
1001
REVIT
1002
{
1070
     1
1000
31103
1002
}
1002
{
1070
     2
1000
-2001350
1002
}
  0
LINE
  5
28A
330
279
100
AcDbEntity
  8
5024A.65G
100
AcDbLine
 10
2.125000000000643
 20
-0.6350473311171787
 30
0.0
 11
-2.124999999999163
 21
-0.635047331117165
 31
0.0
1001
REVIT
1002
{
1070
     1
1000
31103
1002
}
1002
{
1070
     2
1000
-2001350
1002
}
  0
LINE
  5
28B
330
279
100
AcDbEntity
  8
5024A.65G
100
AcDbLine
 10
-2.124999999999163
 20
-0.635047331117165
 30
0.0
 11
-2.124999999999163
 21
-0.0000000000009941
 31
0.0
1001
REVIT
1002
{
1070
     1
1000
31103
1002
}
1002
{
1070
     2
1000
-2001350
1002
}
  0
ARC
  5
28C
330
279
100
AcDbEntity
  8
5024A.65G
100
AcDbCircle
 10
-2.749999999999163
 20
-0.000000000000994
 30
0.0
 40
0.6250000000000002
100
AcDbArc
 50
359.9999999999996
 51
179.9999999999997
1001
REVIT
1002
{
1070
     1
1000
31103
1002
}
1002
{
1070
     2
1000
-2001350
1002
}
  0
LINE
  5
28D
330
279
100
AcDbEntity
  8
5024A.65G
100
AcDbLine
 10
-3.374999999999162
 20
-0.0000000000009915
 30
0.0
 11
-3.374999999999165
 21
-0.6350473311171957
 31
0.0
1001
REVIT
1002
{
1070
     1
1000
31103
1002
}
1002
{
1070
     2
1000
-2001350
1002
}
  0
ARC
  5
28E
330
279
100
AcDbEntity
  8
5024A.65G
100
AcDbCircle
 10
7.117687903483606
 20
-7.903302982168537
 30
0.0
 40
14.08645707825276
100
AcDbArc
 50
155.4360997014486
 51
217.3421787407258
1001
REVIT
1002
{
1070
     1
1000
31498
1002
}
1002
{
1070
     2
1000
-2001350
1002
}
  0
ARC
  5
28F
330
279
100
AcDbEntity
  8
5024A.65G
100
AcDbCircle
 10
0.0
 20
-13.33381330725641
 30
0.0
 40
5.133696415626256
100
AcDbArc
 50
217.3421787407257
 51
322.6578212592678
1001
REVIT
1002
{
1070
     1
1000
31504
1002
}
1002
{
1070
     2
1000
-2001350
1002
}
  0
ARC
  5
290
330
279
100
AcDbEntity
  8
5024A.65G
100
AcDbCircle
 10
-7.117687903482126
 20
-7.903302982168537
 30
0.0
 40
14.08645707825276
100
AcDbArc
 50
322.6578212592678
 51
24.5639002985513
1001
REVIT
1002
{
1070
     1
1000
31518
1002
}
1002
{
1070
     2
1000
-2001350
1002
}
  0
LINE
  5
291
330
279
100
AcDbEntity
  8
5024A.65G
100
AcDbLine
 10
-2.124999999999163
 20
-0.635047331117165
 30
0.0
 11
-3.374999999999165
 21
-0.6350473311171609
 31
0.0
1001
REVIT
1002
{
1070
     1
1000
31619
1002
}
1002
{
1070
     2
1000
-2001350
1002
}
  0
LINE
  5
292
330
279
100
AcDbEntity
  8
5024A.65G
100
AcDbLine
 10
2.125000000000643
 20
-0.663772167038295
 30
0.0
 11
3.375000000000643
 21
-0.663772167038299
 31
0.0
1001
REVIT
1002
{
1070
     1
1000
31687
1002
}
1002
{
1070
     2
1000
-2001350
1002
}
  0
ENDBLK
  5
27B
330
279
100
AcDbEntity
  8
0
100
AcDbBlockEnd
  0
BLOCK
  5
295
330
294
100
AcDbEntity
  8
0
100
AcDbBlockBegin
  2
AMSTD_Transitional_5024A.65G_Front View
 70
     0
 10
0.0
 20
0.0
 30
0.0
  3
AMSTD_Transitional_5024A.65G_Front View
  1

  0
LINE
  5
297
330
294
100
AcDbEntity
  8
5024A.65G
100
AcDbLine
 10
-6.96876917476987
 20
1.166215701578238
 30
0.0
 11
-6.96876917476987
 21
0.9162157015782383
 31
0.0
1001
REVIT
1002
{
1070
     2
1000
-2001350
1002
}
  0
LINE
  5
298
330
294
100
AcDbEntity
  8
5024A.65G
100
AcDbLine
 10
6.968769174769916
 20
0.9162157015782383
 30
0.0
 11
6.968769174769916
 21
1.166215701578238
 31
0.0
1001
REVIT
1002
{
1070
     2
1000
-2001350
1002
}
  0
LINE
  5
299
330
294
100
AcDbEntity
  8
5024A.65G
100
AcDbLine
 10
6.680677897675166
 20
2.062499999999992
 30
0.0
 11
6.690107035439454
 21
2.062311392096312
 31
0.0
1001
REVIT
1002
{
1070
     2
1000
-2001350
1002
}
  0
LINE
  5
29A
330
294
100
AcDbEntity
  8
5024A.65G
100
AcDbLine
 10
6.690107035439454
 20
2.062311392096312
 30
0.0
 11
6.699521088594763
 21
2.061745870117697
 31
0.0
1001
REVIT
1002
{
1070
     2
1000
-2001350
1002
}
  0
LINE
  5
29B
330
294
100
AcDbEntity
  8
5024A.65G
100
AcDbLine
 10
6.699521088594763
 20
2.061745870117697
 30
0.0
 11
6.708904996664263
 21
2.060804338778659
 31
0.0
1001
REVIT
1002
{
1070
     2
1000
-2001350
1002
}
  0
LINE
  5
29C
330
294
100
AcDbEntity
  8
5024A.65G
100
AcDbLine
 10
6.708904996664263
 20
2.060804338778659
 30
0.0
 11
6.718243747396843
 21
2.059488304328503
 31
0.0
1001
REVIT
1002
{
1070
     2
1000
-2001350
1002
}
  0
LINE
  5
29D
330
294
100
AcDbEntity
  8
5024A.65G
100
AcDbLine
 10
6.718243747396843
 20
2.059488304328503
 30
0.0
 11
6.727522400783487
 21
2.057799872141607
 31
0.0
1001
REVIT
1002
{
1070
     2
1000
-2001350
1002
}
  0
LINE
  5
29E
330
294
100
AcDbEntity
  8
5024A.65G
100
AcDbLine
 10
6.727522400783487
 20
2.057799872141607
 30
0.0
 11
6.736726112958124
 21
2.055741743349294
 31
0.0
1001
REVIT
1002
{
1070
     2
1000
-2001350
1002
}
  0
LINE
  5
29F
330
294
100
AcDbEntity
  8
5024A.65G
100
AcDbLine
 10
6.736726112958124
 20
2.055741743349294
 30
0.0
 11
6.745840159944623
 21
2.053317210518578
 31
0.0
1001
REVIT
1002
{
1070
     2
1000
-2001350
1002
}
  0
LINE
  5
2A0
330
294
100
AcDbEntity
  8
5024A.65G
100
AcDbLine
 10
6.745840159944623
 20
2.053317210518578
 30
0.0
 11
6.754849961212026
 21
2.050530152384794
 31
0.0
1001
REVIT
1002
{
1070
     2
1000
-2001350
1002
}
  0
LINE
  5
2A1
330
294
100
AcDbEntity
  8
5024A.65G
100
AcDbLine
 10
6.754849961212026
 20
2.050530152384794
 30
0.0
 11
6.763741103000303
 21
2.047385027646406
 31
0.0
1001
REVIT
1002
{
1070
     2
1000
-2001350
1002
}
  0
LINE
  5
2A2
330
294
100
AcDbEntity
  8
5024A.65G
100
AcDbLine
 10
6.763741103000303
 20
2.047385027646406
 30
0.0
 11
6.772499361379263
 21
2.043886867832071
 31
0.0
1001
REVIT
1002
{
1070
     2
1000
-2001350
1002
}
  0
LINE
  5
2A3
330
294
100
AcDbEntity
  8
5024A.65G
100
AcDbLine
 10
6.772499361379263
 20
2.043886867832071
 30
0.0
 11
6.781110725003835
 21
2.040041269251268
 31
0.0
1001
REVIT
1002
{
1070
     2
1000
-2001350
1002
}
  0
LINE
  5
2A4
330
294
100
AcDbEntity
  8
5024A.65G
100
AcDbLine
 10
6.781110725003835
 20
2.040041269251268
 30
0.0
 11
6.789561417529204
 21
2.035854384041364
 31
0.0
1001
REVIT
1002
{
1070
     2
1000
-2001350
1002
}
  0
LINE
  5
2A5
330
294
100
AcDbEntity
  8
5024A.65G
100
AcDbLine
 10
6.789561417529204
 20
2.035854384041364
 30
0.0
 11
6.797837919650056
 21
2.031332910325545
 31
0.0
1001
REVIT
1002
{
1070
     2
1000
-2001350
1002
}
  0
LINE
  5
2A6
330
294
100
AcDbEntity
  8
5024A.65G
100
AcDbLine
 10
6.797837919650056
 20
2.031332910325545
 30
0.0
 11
6.80592699072855
 21
2.02648408149723
 31
0.0
1001
REVIT
1002
{
1070
     2
1000
-2001350
1002
}
  0
LINE
  5
2A7
330
294
100
AcDbEntity
  8
5024A.65G
100
AcDbLine
 10
6.80592699072855
 20
2.02648408149723
 30
0.0
 11
6.813815689976535
 21
2.021315654648176
 31
0.0
1001
REVIT
1002
{
1070
     2
1000
-2001350
1002
}
  0
LINE
  5
2A8
330
294
100
AcDbEntity
  8
5024A.65G
100
AcDbLine
 10
6.813815689976535
 20
2.021315654648176
 30
0.0
 11
6.821491397158061
 21
2.015835898158805
 31
0.0
1001
REVIT
1002
{
1070
     2
1000
-2001350
1002
}
  0
LINE
  5
2A9
330
294
100
AcDbEntity
  8
5024A.65G
100
AcDbLine
 10
6.821491397158061
 20
2.015835898158805
 30
0.0
 11
6.828941832779022
 21
2.010053578470554
 31
0.0
1001
REVIT
1002
{
1070
     2
1000
-2001350
1002
}
  0
LINE
  5
2AA
330
294
100
AcDbEntity
  8
5024A.65G
100
AcDbLine
 10
6.828941832779022
 20
2.010053578470554
 30
0.0
 11
6.836155077731773
 21
2.003977946061418
 31
0.0
1001
REVIT
1002
{
1070
     2
1000
-2001350
1002
}
  0
LINE
  5
2AB
330
294
100
AcDbEntity
  8
5024A.65G
100
AcDbLine
 10
6.836155077731773
 20
2.003977946061418
 30
0.0
 11
6.843119592363129
 21
1.997618720647196
 31
0.0
1001
REVIT
1002
{
1070
     2
1000
-2001350
1002
}
  0
LINE
  5
2AC
330
294
100
AcDbEntity
  8
5024A.65G
100
AcDbLine
 10
6.843119592363129
 20
1.997618720647196
 30
0.0
 11
6.849824234935355
 21
1.99098607563198
 31
0.0
1001
REVIT
1002
{
1070
     2
1000
-2001350
1002
}
  0
LINE
  5
2AD
330
294
100
AcDbEntity
  8
5024A.65G
100
AcDbLine
 10
6.849824234935355
 20
1.99098607563198
 30
0.0
 11
6.856258279450602
 21
1.984090621832912
 31
0.0
1001
REVIT
1002
{
1070
     2
1000
-2001350
1002
}
  0
LINE
  5
2AE
330
294
100
AcDbEntity
  8
5024A.65G
100
AcDbLine
 10
6.856258279450602
 20
1.984090621832912
 30
0.0
 11
6.862411432810154
 21
1.976943390505113
 31
0.0
1001
REVIT
1002
{
1070
     2
1000
-2001350
1002
}
  0
LINE
  5
2AF
330
294
100
AcDbEntity
  8
5024A.65G
100
AcDbLine
 10
6.862411432810154
 20
1.976943390505113
 30
0.0
 11
6.868273851281249
 21
1.969555815694043
 31
0.0
1001
REVIT
1002
{
1070
     2
1000
-2001350
1002
}
  0
LINE
  5
2B0
330
294
100
AcDbEntity
  8
5024A.65G
100
AcDbLine
 10
6.868273851281249
 20
1.969555815694043
 30
0.0
 11
6.873836156244908
 21
1.961939715943486
 31
0.0
1001
REVIT
1002
{
1070
     2
1000
-2001350
1002
}
  0
LINE
  5
2B1
330
294
100
AcDbEntity
  8
5024A.65G
100
AcDbLine
 10
6.873836156244908
 20
1.961939715943486
 30
0.0
 11
6.879089449199748
 21
1.954107275388338
 31
0.0
1001
REVIT
1002
{
1070
     2
1000
-2001350
1002
}
  0
LINE
  5
2B2
330
294
100
AcDbEntity
  8
5024A.65G
100
AcDbLine
 10
6.879089449199748
 20
1.954107275388338
 30
0.0
 11
6.884025325997693
 21
1.946071024262671
 31
0.0
1001
REVIT
1002
{
1070
     2
1000
-2001350
1002
}
  0
LINE
  5
2B3
330
294
100
AcDbEntity
  8
5024A.65G
100
AcDbLine
 10
6.884025325997693
 20
1.946071024262671
 30
0.0
 11
6.888635890288793
 21
1.937843818853977
 31
0.0
1001
REVIT
1002
{
1070
     2
1000
-2001350
1002
}
  0
LINE
  5
2B4
330
294
100
AcDbEntity
  8
5024A.65G
100
AcDbLine
 10
6.888635890288793
 20
1.937843818853977
 30
0.0
 11
6.892913766153717
 21
1.929438820935857
 31
0.0
1001
REVIT
1002
{
1070
     2
1000
-2001350
1002
}
  0
LINE
  5
2B5
330
294
100
AcDbEntity
  8
5024A.65G
100
AcDbLine
 10
6.892913766153717
 20
1.929438820935857
 30
0.0
 11
6.896852109903636
 21
1.92086947671202
 31
0.0
1001
REVIT
1002
{
1070
     2
1000
-2001350
1002
}
  0
LINE
  5
2B6
330
294
100
AcDbEntity
  8
5024A.65G
100
AcDbLine
 10
6.896852109903636
 20
1.92086947671202
 30
0.0
 11
6.900444621028708
 21
1.912149495305186
 31
0.0
1001
REVIT
1002
{
1070
     2
1000
-2001350
1002
}
  0
LINE
  5
2B7
330
294
100
AcDbEntity
  8
5024A.65G
100
AcDbLine
 10
6.900444621028708
 20
1.912149495305186
 30
0.0
 11
6.903685552277479
 21
1.903292826825442
 31
0.0
1001
REVIT
1002
{
1070
     2
1000
-2001350
1002
}
  0
LINE
  5
2B8
330
294
100
AcDbEntity
  8
5024A.65G
100
AcDbLine
 10
6.903685552277479
 20
1.903292826825442
 30
0.0
 11
6.906569718851314
 21
1.894313640053042
 31
0.0
1001
REVIT
1002
{
1070
     2
1000
-2001350
1002
}
  0
LINE
  5
2B9
330
294
100
AcDbEntity
  8
5024A.65G
100
AcDbLine
 10
6.906569718851314
 20
1.894313640053042
 30
0.0
 11
6.909092506698953
 21
1.88522629977136
 31
0.0
1001
REVIT
1002
{
1070
     2
1000
-2001350
1002
}
  0
LINE
  5
2BA
330
294
100
AcDbEntity
  8
5024A.65G
100
AcDbLine
 10
6.909092506698953
 20
1.88522629977136
 30
0.0
 11
6.911249879898003
 21
1.876045343786323
 31
0.0
1001
REVIT
1002
{
1070
     2
1000
-2001350
1002
}
  0
LINE
  5
2BB
330
294
100
AcDbEntity
  8
5024A.65G
100
AcDbLine
 10
6.911249879898003
 20
1.876045343786323
 30
0.0
 11
6.913038387111565
 21
1.866785459668996
 31
0.0
1001
REVIT
1002
{
1070
     2
1000
-2001350
1002
}
  0
LINE
  5
2BC
330
294
100
AcDbEntity
  8
5024A.65G
100
AcDbLine
 10
6.913038387111565
 20
1.866785459668996
 30
0.0
 11
6.913530823400964
 21
1.863817442866363
 31
0.0
1001
REVIT
1002
{
1070
     2
1000
-2001350
1002
}
  0
LINE
  5
2BD
330
294
100
AcDbEntity
  8
5024A.65G
100
AcDbLine
 10
4.920299930072926
 20
2.062499999999992
 30
0.0
 11
5.180359521198611
 21
2.062499999999992
 31
0.0
1001
REVIT
1002
{
1070
     2
1000
-2001350
1002
}
  0
LINE
  5
2BE
330
294
100
AcDbEntity
  8
5024A.65G
100
AcDbLine
 10
5.180359521198611
 20
2.062499999999992
 30
0.0
 11
5.420744859888332
 21
2.062499999999992
 31
0.0
1001
REVIT
1002
{
1070
     2
1000
-2001350
1002
}
  0
LINE
  5
2BF
330
294
100
AcDbEntity
  8
5024A.65G
100
AcDbLine
 10
5.420744859888332
 20
2.062499999999992
 30
0.0
 11
5.641071380879664
 21
2.062499999999992
 31
0.0
1001
REVIT
1002
{
1070
     2
1000
-2001350
1002
}
  0
LINE
  5
2C0
330
294
100
AcDbEntity
  8
5024A.65G
100
AcDbLine
 10
5.641071380879664
 20
2.062499999999992
 30
0.0
 11
5.840986608739501
 21
2.062499999999992
 31
0.0
1001
REVIT
1002
{
1070
     2
1000
-2001350
1002
}
  0
LINE
  5
2C1
330
294
100
AcDbEntity
  8
5024A.65G
100
AcDbLine
 10
5.840986608739501
 20
2.062499999999992
 30
0.0
 11
6.020170721749575
 21
2.062499999999992
 31
0.0
1001
REVIT
1002
{
1070
     2
1000
-2001350
1002
}
  0
LINE
  5
2C2
330
294
100
AcDbEntity
  8
5024A.65G
100
AcDbLine
 10
6.020170721749575
 20
2.062499999999992
 30
0.0
 11
6.178337063552974
 21
2.062499999999992
 31
0.0
1001
REVIT
1002
{
1070
     2
1000
-2001350
1002
}
  0
LINE
  5
2C3
330
294
100
AcDbEntity
  8
5024A.65G
100
AcDbLine
 10
6.178337063552974
 20
2.062499999999992
 30
0.0
 11
6.315232601743166
 21
2.062499999999992
 31
0.0
1001
REVIT
1002
{
1070
     2
1000
-2001350
1002
}
  0
LINE
  5
2C4
330
294
100
AcDbEntity
  8
5024A.65G
100
AcDbLine
 10
6.315232601743166
 20
2.062499999999992
 30
0.0
 11
6.430638332661877
 21
2.062499999999992
 31
0.0
1001
REVIT
1002
{
1070
     2
1000
-2001350
1002
}
  0
LINE
  5
2C5
330
294
100
AcDbEntity
  8
5024A.65G
100
AcDbLine
 10
6.430638332661877
 20
2.062499999999992
 30
0.0
 11
6.524369631758202
 21
2.062499999999992
 31
0.0
1001
REVIT
1002
{
1070
     2
1000
-2001350
1002
}
  0
LINE
  5
2C6
330
294
100
AcDbEntity
  8
5024A.65G
100
AcDbLine
 10
6.524369631758202
 20
2.062499999999992
 30
0.0
 11
6.596276548948542
 21
2.062499999999992
 31
0.0
1001
REVIT
1002
{
1070
     2
1000
-2001350
1002
}
  0
LINE
  5
2C7
330
294
100
AcDbEntity
  8
5024A.65G
100
AcDbLine
 10
6.596276548948542
 20
2.062499999999992
 30
0.0
 11
6.646244048504708
 21
2.062499999999992
 31
0.0
1001
REVIT
1002
{
1070
     2
1000
-2001350
1002
}
  0
LINE
  5
2C8
330
294
100
AcDbEntity
  8
5024A.65G
100
AcDbLine
 10
6.646244048504708
 20
2.062499999999992
 30
0.0
 11
6.674192193086578
 21
2.062499999999992
 31
0.0
1001
REVIT
1002
{
1070
     2
1000
-2001350
1002
}
  0
LINE
  5
2C9
330
294
100
AcDbEntity
  8
5024A.65G
100
AcDbLine
 10
6.674192193086578
 20
2.062499999999992
 30
0.0
 11
6.680677897675166
 21
2.062499999999992
 31
0.0
1001
REVIT
1002
{
1070
     2
1000
-2001350
1002
}
  0
LINE
  5
2CA
330
294
100
AcDbEntity
  8
5024A.65G
100
AcDbLine
 10
6.680677897675166
 20
2.062499999999992
 30
0.0
 11
6.669640676781425
 21
2.062499999999992
 31
0.0
1001
REVIT
1002
{
1070
     2
1000
-2001350
1002
}
  0
LINE
  5
2CB
330
294
100
AcDbEntity
  8
5024A.65G
100
AcDbLine
 10
6.669640676781425
 20
2.062499999999992
 30
0.0
 11
6.636546671299167
 21
2.062499999999992
 31
0.0
1001
REVIT
1002
{
1070
     2
1000
-2001350
1002
}
  0
LINE
  5
2CC
330
294
100
AcDbEntity
  8
5024A.65G
100
AcDbLine
 10
6.636546671299167
 20
2.062499999999992
 30
0.0
 11
6.581448824577475
 21
2.062499999999992
 31
0.0
1001
REVIT
1002
{
1070
     2
1000
-2001350
1002
}
  0
LINE
  5
2CD
330
294
100
AcDbEntity
  8
5024A.65G
100
AcDbLine
 10
6.581448824577475
 20
2.062499999999992
 30
0.0
 11
6.504435281417529
 21
2.062499999999992
 31
0.0
1001
REVIT
1002
{
1070
     2
1000
-2001350
1002
}
  0
LINE
  5
2CE
330
294
100
AcDbEntity
  8
5024A.65G
100
AcDbLine
 10
6.504435281417529
 20
2.062499999999992
 30
0.0
 11
6.405629247059708
 21
2.062499999999992
 31
0.0
1001
REVIT
1002
{
1070
     2
1000
-2001350
1002
}
  0
LINE
  5
2CF
330
294
100
AcDbEntity
  8
5024A.65G
100
AcDbLine
 10
6.405629247059708
 20
2.062499999999992
 30
0.0
 11
6.28518879008148
 21
2.062499999999992
 31
0.0
1001
REVIT
1002
{
1070
     2
1000
-2001350
1002
}
  0
LINE
  5
2D0
330
294
100
AcDbEntity
  8
5024A.65G
100
AcDbLine
 10
6.28518879008148
 20
2.062499999999992
 30
0.0
 11
6.143306589521418
 21
2.062499999999992
 31
0.0
1001
REVIT
1002
{
1070
     2
1000
-2001350
1002
}
  0
LINE
  5
2D1
330
294
100
AcDbEntity
  8
5024A.65G
100
AcDbLine
 10
6.143306589521418
 20
2.062499999999992
 30
0.0
 11
5.980209626633832
 21
2.062499999999992
 31
0.0
1001
REVIT
1002
{
1070
     2
1000
-2001350
1002
}
  0
LINE
  5
2D2
330
294
100
AcDbEntity
  8
5024A.65G
100
AcDbLine
 10
5.980209626633832
 20
2.062499999999992
 30
0.0
 11
5.796158821767176
 21
2.062499999999992
 31
0.0
1001
REVIT
1002
{
1070
     2
1000
-2001350
1002
}
  0
LINE
  5
2D3
330
294
100
AcDbEntity
  8
5024A.65G
100
AcDbLine
 10
5.796158821767176
 20
2.062499999999992
 30
0.0
 11
5.591448616947164
 21
2.062499999999992
 31
0.0
1001
REVIT
1002
{
1070
     2
1000
-2001350
1002
}
  0
LINE
  5
2D4
330
294
100
AcDbEntity
  8
5024A.65G
100
AcDbLine
 10
5.591448616947164
 20
2.062499999999992
 30
0.0
 11
5.366406504832323
 21
2.062499999999992
 31
0.0
1001
REVIT
1002
{
1070
     2
1000
-2001350
1002
}
  0
LINE
  5
2D5
330
294
100
AcDbEntity
  8
5024A.65G
100
AcDbLine
 10
5.366406504832323
 20
2.062499999999992
 30
0.0
 11
5.121392504795614
 21
2.062499999999992
 31
0.0
1001
REVIT
1002
{
1070
     2
1000
-2001350
1002
}
  0
LINE
  5
2D6
330
294
100
AcDbEntity
  8
5024A.65G
100
AcDbLine
 10
5.121392504795614
 20
2.062499999999992
 30
0.0
 11
4.856798586970232
 21
2.062499999999992
 31
0.0
1001
REVIT
1002
{
1070
     2
1000
-2001350
1002
}
  0
LINE
  5
2D7
330
294
100
AcDbEntity
  8
5024A.65G
100
AcDbLine
 10
4.856798586970232
 20
2.062499999999992
 30
0.0
 11
4.573048045180999
 21
2.062499999999992
 31
0.0
1001
REVIT
1002
{
1070
     2
1000
-2001350
1002
}
  0
LINE
  5
2D8
330
294
100
AcDbEntity
  8
5024A.65G
100
AcDbLine
 10
4.573048045180999
 20
2.062499999999992
 30
0.0
 11
4.27059481976457
 21
2.062499999999992
 31
0.0
1001
REVIT
1002
{
1070
     2
1000
-2001350
1002
}
  0
LINE
  5
2D9
330
294
100
AcDbEntity
  8
5024A.65G
100
AcDbLine
 10
4.27059481976457
 20
2.062499999999992
 30
0.0
 11
3.949922771361683
 21
2.062499999999992
 31
0.0
1001
REVIT
1002
{
1070
     2
1000
-2001350
1002
}
  0
LINE
  5
2DA
330
294
100
AcDbEntity
  8
5024A.65G
100
AcDbLine
 10
3.949922771361683
 20
2.062499999999992
 30
0.0
 11
3.852387702438844
 21
2.062499999999992
 31
0.0
1001
REVIT
1002
{
1070
     2
1000
-2001350
1002
}
  0
LINE
  5
2DB
330
294
100
AcDbEntity
  8
5024A.65G
100
AcDbLine
 10
6.913530823400964
 20
1.863817442866363
 30
0.0
 11
6.937926027006876
 21
1.688211501557802
 31
0.0
1001
REVIT
1002
{
1070
     2
1000
-2001350
1002
}
  0
LINE
  5
2DC
330
294
100
AcDbEntity
  8
5024A.65G
100
AcDbLine
 10
6.937926027006876
 20
1.688211501557802
 30
0.0
 11
6.955279352379775
 21
1.511770478322439
 31
0.0
1001
REVIT
1002
{
1070
     2
1000
-2001350
1002
}
  0
LINE
  5
2DD
330
294
100
AcDbEntity
  8
5024A.65G
100
AcDbLine
 10
6.955279352379775
 20
1.511770478322439
 30
0.0
 11
6.965563037900902
 21
1.334776641158711
 31
0.0
1001
REVIT
1002
{
1070
     2
1000
-2001350
1002
}
  0
LINE
  5
2DE
330
294
100
AcDbEntity
  8
5024A.65G
100
AcDbLine
 10
6.965563037900902
 20
1.334776641158711
 30
0.0
 11
6.968769174769916
 21
1.166215701578238
 31
0.0
1001
REVIT
1002
{
1070
     2
1000
-2001350
1002
}
  0
LINE
  5
2DF
330
294
100
AcDbEntity
  8
5024A.65G
100
AcDbLine
 10
3.852387702438844
 20
2.062499999999992
 30
0.0
 11
3.731768861598122
 21
2.062499999999992
 31
0.0
1001
REVIT
1002
{
1070
     2
1000
-2001350
1002
}
  0
LINE
  5
2E0
330
294
100
AcDbEntity
  8
5024A.65G
100
AcDbLine
 10
3.731768861598122
 20
2.062499999999992
 30
0.0
 11
3.605179986647075
 21
2.062499999999992
 31
0.0
1001
REVIT
1002
{
1070
     2
1000
-2001350
1002
}
  0
LINE
  5
2E1
330
294
100
AcDbEntity
  8
5024A.65G
100
AcDbLine
 10
3.605179986647075
 20
2.062499999999992
 30
0.0
 11
3.472823592781439
 21
2.062499999999992
 31
0.0
1001
REVIT
1002
{
1070
     2
1000
-2001350
1002
}
  0
LINE
  5
2E2
330
294
100
AcDbEntity
  8
5024A.65G
100
AcDbLine
 10
3.472823592781439
 20
2.062499999999992
 30
0.0
 11
3.334911421996877
 21
2.062499999999992
 31
0.0
1001
REVIT
1002
{
1070
     2
1000
-2001350
1002
}
  0
LINE
  5
2E3
330
294
100
AcDbEntity
  8
5024A.65G
100
AcDbLine
 10
3.334911421996877
 20
2.062499999999992
 30
0.0
 11
3.191664104346943
 21
2.062499999999992
 31
0.0
1001
REVIT
1002
{
1070
     2
1000
-2001350
1002
}
  0
LINE
  5
2E4
330
294
100
AcDbEntity
  8
5024A.65G
100
AcDbLine
 10
3.191664104346943
 20
2.062499999999992
 30
0.0
 11
3.043310804982085
 21
2.062499999999992
 31
0.0
1001
REVIT
1002
{
1070
     2
1000
-2001350
1002
}
  0
LINE
  5
2E5
330
294
100
AcDbEntity
  8
5024A.65G
100
AcDbLine
 10
3.043310804982085
 20
2.062499999999992
 30
0.0
 11
2.890088857534268
 21
2.062499999999992
 31
0.0
1001
REVIT
1002
{
1070
     2
1000
-2001350
1002
}
  0
LINE
  5
2E6
330
294
100
AcDbEntity
  8
5024A.65G
100
AcDbLine
 10
2.890088857534268
 20
2.062499999999992
 30
0.0
 11
2.732243384433806
 21
2.062499999999992
 31
0.0
1001
REVIT
1002
{
1070
     2
1000
-2001350
1002
}
  0
LINE
  5
2E7
330
294
100
AcDbEntity
  8
5024A.65G
100
AcDbLine
 10
2.732243384433806
 20
2.062499999999992
 30
0.0
 11
2.570026904765753
 21
2.062499999999992
 31
0.0
1001
REVIT
1002
{
1070
     2
1000
-2001350
1002
}
  0
LINE
  5
2E8
330
294
100
AcDbEntity
  8
5024A.65G
100
AcDbLine
 10
2.570026904765753
 20
2.062499999999992
 30
0.0
 11
2.403698930293237
 21
2.062499999999992
 31
0.0
1001
REVIT
1002
{
1070
     2
1000
-2001350
1002
}
  0
LINE
  5
2E9
330
294
100
AcDbEntity
  8
5024A.65G
100
AcDbLine
 10
2.403698930293237
 20
2.062499999999992
 30
0.0
 11
2.233525550294014
 21
2.062499999999992
 31
0.0
1001
REVIT
1002
{
1070
     2
1000
-2001350
1002
}
  0
LINE
  5
2EA
330
294
100
AcDbEntity
  8
5024A.65G
100
AcDbLine
 10
2.233525550294014
 20
2.062499999999992
 30
0.0
 11
2.059779005874356
 21
2.062499999999992
 31
0.0
1001
REVIT
1002
{
1070
     2
1000
-2001350
1002
}
  0
LINE
  5
2EB
330
294
100
AcDbEntity
  8
5024A.65G
100
AcDbLine
 10
2.059779005874356
 20
2.062499999999992
 30
0.0
 11
1.882737254441388
 21
2.062499999999992
 31
0.0
1001
REVIT
1002
{
1070
     2
1000
-2001350
1002
}
  0
LINE
  5
2EC
330
294
100
AcDbEntity
  8
5024A.65G
100
AcDbLine
 10
1.882737254441388
 20
2.062499999999992
 30
0.0
 11
1.702683525030503
 21
2.062499999999992
 31
0.0
1001
REVIT
1002
{
1070
     2
1000
-2001350
1002
}
  0
LINE
  5
2ED
330
294
100
AcDbEntity
  8
5024A.65G
100
AcDbLine
 10
1.702683525030503
 20
2.062499999999992
 30
0.0
 11
1.519905865199354
 21
2.062499999999992
 31
0.0
1001
REVIT
1002
{
1070
     2
1000
-2001350
1002
}
  0
LINE
  5
2EE
330
294
100
AcDbEntity
  8
5024A.65G
100
AcDbLine
 10
1.519905865199354
 20
2.062499999999992
 30
0.0
 11
1.334696680213174
 21
2.062499999999992
 31
0.0
1001
REVIT
1002
{
1070
     2
1000
-2001350
1002
}
  0
LINE
  5
2EF
330
294
100
AcDbEntity
  8
5024A.65G
100
AcDbLine
 10
1.334696680213174
 20
2.062499999999992
 30
0.0
 11
1.147352265258761
 21
2.062499999999992
 31
0.0
1001
REVIT
1002
{
1070
     2
1000
-2001350
1002
}
  0
LINE
  5
2F0
330
294
100
AcDbEntity
  8
5024A.65G
100
AcDbLine
 10
1.147352265258761
 20
2.062499999999992
 30
0.0
 11
0.9581723314353647
 21
2.062499999999992
 31
0.0
1001
REVIT
1002
{
1070
     2
1000
-2001350
1002
}
  0
LINE
  5
2F1
330
294
100
AcDbEntity
  8
5024A.65G
100
AcDbLine
 10
0.9581723314353647
 20
2.062499999999992
 30
0.0
 11
0.7674595262808657
 21
2.062499999999992
 31
0.0
1001
REVIT
1002
{
1070
     2
1000
-2001350
1002
}
  0
LINE
  5
2F2
330
294
100
AcDbEntity
  8
5024A.65G
100
AcDbLine
 10
0.7674595262808657
 20
2.062499999999992
 30
0.0
 11
0.5755189496002844
 21
2.062499999999992
 31
0.0
1001
REVIT
1002
{
1070
     2
1000
-2001350
1002
}
  0
LINE
  5
2F3
330
294
100
AcDbEntity
  8
5024A.65G
100
AcDbLine
 10
0.5755189496002844
 20
2.062499999999992
 30
0.0
 11
0.3826576653711715
 21
2.062499999999992
 31
0.0
1001
REVIT
1002
{
1070
     2
1000
-2001350
1002
}
  0
LINE
  5
2F4
330
294
100
AcDbEntity
  8
5024A.65G
100
AcDbLine
 10
0.3826576653711715
 20
2.062499999999992
 30
0.0
 11
0.1891842105067454
 21
2.062499999999992
 31
0.0
1001
REVIT
1002
{
1070
     2
1000
-2001350
1002
}
  0
LINE
  5
2F5
330
294
100
AcDbEntity
  8
5024A.65G
100
AcDbLine
 10
0.1891842105067454
 20
2.062499999999992
 30
0.0
 11
-0.0045918987373446
 21
2.062499999999992
 31
0.0
1001
REVIT
1002
{
1070
     2
1000
-2001350
1002
}
  0
LINE
  5
2F6
330
294
100
AcDbEntity
  8
5024A.65G
100
AcDbLine
 10
-0.0045918987373446
 20
2.062499999999992
 30
0.0
 11
-0.198360661923008
 21
2.062499999999992
 31
0.0
1001
REVIT
1002
{
1070
     2
1000
-2001350
1002
}
  0
LINE
  5
2F7
330
294
100
AcDbEntity
  8
5024A.65G
100
AcDbLine
 10
-0.198360661923008
 20
2.062499999999992
 30
0.0
 11
-0.3918120903642785
 21
2.062499999999992
 31
0.0
1001
REVIT
1002
{
1070
     2
1000
-2001350
1002
}
  0
LINE
  5
2F8
330
294
100
AcDbEntity
  8
5024A.65G
100
AcDbLine
 10
-0.3918120903642785
 20
2.062499999999992
 30
0.0
 11
-0.5846367030430875
 21
2.062499999999992
 31
0.0
1001
REVIT
1002
{
1070
     2
1000
-2001350
1002
}
  0
LINE
  5
2F9
330
294
100
AcDbEntity
  8
5024A.65G
100
AcDbLine
 10
-0.5846367030430875
 20
2.062499999999992
 30
0.0
 11
-0.7765260217128729
 21
2.062499999999992
 31
0.0
1001
REVIT
1002
{
1070
     2
1000
-2001350
1002
}
  0
LINE
  5
2FA
330
294
100
AcDbEntity
  8
5024A.65G
100
AcDbLine
 10
-0.7765260217128729
 20
2.062499999999992
 30
0.0
 11
-0.9671730643979676
 21
2.062499999999992
 31
0.0
1001
REVIT
1002
{
1070
     2
1000
-2001350
1002
}
  0
LINE
  5
2FB
330
294
100
AcDbEntity
  8
5024A.65G
100
AcDbLine
 10
-0.9671730643979676
 20
2.062499999999992
 30
0.0
 11
-1.156272836499276
 21
2.062499999999992
 31
0.0
1001
REVIT
1002
{
1070
     2
1000
-2001350
1002
}
  0
LINE
  5
2FC
330
294
100
AcDbEntity
  8
5024A.65G
100
AcDbLine
 10
-1.156272836499276
 20
2.062499999999992
 30
0.0
 11
-1.343522818720567
 21
2.062499999999992
 31
0.0
1001
REVIT
1002
{
1070
     2
1000
-2001350
1002
}
  0
LINE
  5
2FD
330
294
100
AcDbEntity
  8
5024A.65G
100
AcDbLine
 10
-1.343522818720567
 20
2.062499999999992
 30
0.0
 11
-1.528623451034821
 21
2.062499999999992
 31
0.0
1001
REVIT
1002
{
1070
     2
1000
-2001350
1002
}
  0
LINE
  5
2FE
330
294
100
AcDbEntity
  8
5024A.65G
100
AcDbLine
 10
-1.528623451034821
 20
2.062499999999992
 30
0.0
 11
-1.711278611916363
 21
2.062499999999992
 31
0.0
1001
REVIT
1002
{
1070
     2
1000
-2001350
1002
}
  0
LINE
  5
2FF
330
294
100
AcDbEntity
  8
5024A.65G
100
AcDbLine
 10
-1.711278611916363
 20
2.062499999999992
 30
0.0
 11
-1.891196092072141
 21
2.062499999999992
 31
0.0
1001
REVIT
1002
{
1070
     2
1000
-2001350
1002
}
  0
LINE
  5
300
330
294
100
AcDbEntity
  8
5024A.65G
100
AcDbLine
 10
-1.891196092072141
 20
2.062499999999992
 30
0.0
 11
-2.068088061914252
 21
2.062499999999992
 31
0.0
1001
REVIT
1002
{
1070
     2
1000
-2001350
1002
}
  0
LINE
  5
301
330
294
100
AcDbEntity
  8
5024A.65G
100
AcDbLine
 10
-2.068088061914252
 20
2.062499999999992
 30
0.0
 11
-2.241671532025891
 21
2.062499999999992
 31
0.0
1001
REVIT
1002
{
1070
     2
1000
-2001350
1002
}
  0
LINE
  5
302
330
294
100
AcDbEntity
  8
5024A.65G
100
AcDbLine
 10
-2.241671532025891
 20
2.062499999999992
 30
0.0
 11
-2.411668805884043
 21
2.062499999999992
 31
0.0
1001
REVIT
1002
{
1070
     2
1000
-2001350
1002
}
  0
LINE
  5
303
330
294
100
AcDbEntity
  8
5024A.65G
100
AcDbLine
 10
-2.411668805884043
 20
2.062499999999992
 30
0.0
 11
-2.577807924114689
 21
2.062499999999992
 31
0.0
1001
REVIT
1002
{
1070
     2
1000
-2001350
1002
}
  0
LINE
  5
304
330
294
100
AcDbEntity
  8
5024A.65G
100
AcDbLine
 10
-2.577807924114689
 20
2.062499999999992
 30
0.0
 11
-2.739823099569778
 21
2.062499999999992
 31
0.0
1001
REVIT
1002
{
1070
     2
1000
-2001350
1002
}
  0
LINE
  5
305
330
294
100
AcDbEntity
  8
5024A.65G
100
AcDbLine
 10
-2.739823099569778
 20
2.062499999999992
 30
0.0
 11
-2.897455142529978
 21
2.062499999999992
 31
0.0
1001
REVIT
1002
{
1070
     2
1000
-2001350
1002
}
  0
LINE
  5
306
330
294
100
AcDbEntity
  8
5024A.65G
100
AcDbLine
 10
-2.897455142529978
 20
2.062499999999992
 30
0.0
 11
-3.050451875352929
 21
2.062499999999992
 31
0.0
1001
REVIT
1002
{
1070
     2
1000
-2001350
1002
}
  0
LINE
  5
307
330
294
100
AcDbEntity
  8
5024A.65G
100
AcDbLine
 10
-3.050451875352929
 20
2.062499999999992
 30
0.0
 11
-3.198568535903675
 21
2.062499999999992
 31
0.0
1001
REVIT
1002
{
1070
     2
1000
-2001350
1002
}
  0
LINE
  5
308
330
294
100
AcDbEntity
  8
5024A.65G
100
AcDbLine
 10
-3.198568535903675
 20
2.062499999999992
 30
0.0
 11
-3.341568169121871
 21
2.062499999999992
 31
0.0
1001
REVIT
1002
{
1070
     2
1000
-2001350
1002
}
  0
LINE
  5
309
330
294
100
AcDbEntity
  8
5024A.65G
100
AcDbLine
 10
-3.341568169121871
 20
2.062499999999992
 30
0.0
 11
-3.47922200609933
 21
2.062499999999992
 31
0.0
1001
REVIT
1002
{
1070
     2
1000
-2001350
1002
}
  0
LINE
  5
30A
330
294
100
AcDbEntity
  8
5024A.65G
100
AcDbLine
 10
-3.47922200609933
 20
2.062499999999992
 30
0.0
 11
-3.611309830061472
 21
2.062499999999992
 31
0.0
1001
REVIT
1002
{
1070
     2
1000
-2001350
1002
}
  0
LINE
  5
30B
330
294
100
AcDbEntity
  8
5024A.65G
100
AcDbLine
 10
-3.611309830061472
 20
2.062499999999992
 30
0.0
 11
-3.737620328667194
 21
2.062499999999992
 31
0.0
1001
REVIT
1002
{
1070
     2
1000
-2001350
1002
}
  0
LINE
  5
30C
330
294
100
AcDbEntity
  8
5024A.65G
100
AcDbLine
 10
-3.737620328667194
 20
2.062499999999992
 30
0.0
 11
-3.852387702438782
 21
2.062499999999992
 31
0.0
1001
REVIT
1002
{
1070
     2
1000
-2001350
1002
}
  0
LINE
  5
30D
330
294
100
AcDbEntity
  8
5024A.65G
100
AcDbLine
 10
-6.913530823400913
 20
1.863817442866363
 30
0.0
 11
-6.911860611306636
 21
1.8730993932799
 31
0.0
1001
REVIT
1002
{
1070
     2
1000
-2001350
1002
}
  0
LINE
  5
30E
330
294
100
AcDbEntity
  8
5024A.65G
100
AcDbLine
 10
-6.911860611306636
 20
1.8730993932799
 30
0.0
 11
-6.909820556186898
 21
1.882307128453533
 31
0.0
1001
REVIT
1002
{
1070
     2
1000
-2001350
1002
}
  0
LINE
  5
30F
330
294
100
AcDbEntity
  8
5024A.65G
100
AcDbLine
 10
-6.909820556186898
 20
1.882307128453533
 30
0.0
 11
-6.9074139216947
 21
1.891425917975183
 31
0.0
1001
REVIT
1002
{
1070
     2
1000
-2001350
1002
}
  0
LINE
  5
310
330
294
100
AcDbEntity
  8
5024A.65G
100
AcDbLine
 10
-6.9074139216947
 20
1.891425917975183
 30
0.0
 11
-6.904644557931844
 21
1.900441173726868
 31
0.0
1001
REVIT
1002
{
1070
     2
1000
-2001350
1002
}
  0
LINE
  5
311
330
294
100
AcDbEntity
  8
5024A.65G
100
AcDbLine
 10
-6.904644557931844
 20
1.900441173726868
 30
0.0
 11
-6.901516895289583
 21
1.909338473222526
 31
0.0
1001
REVIT
1002
{
1070
     2
1000
-2001350
1002
}
  0
LINE
  5
312
330
294
100
AcDbEntity
  8
5024A.65G
100
AcDbLine
 10
-6.901516895289583
 20
1.909338473222526
 30
0.0
 11
-6.898035937360944
 21
1.918103582680963
 31
0.0
1001
REVIT
1002
{
1070
     2
1000
-2001350
1002
}
  0
LINE
  5
313
330
294
100
AcDbEntity
  8
5024A.65G
100
AcDbLine
 10
-6.898035937360944
 20
1.918103582680963
 30
0.0
 11
-6.894207252936049
 21
1.926722479796822
 31
0.0
1001
REVIT
1002
{
1070
     2
1000
-2001350
1002
}
  0
LINE
  5
314
330
294
100
AcDbEntity
  8
5024A.65G
100
AcDbLine
 10
-6.894207252936049
 20
1.926722479796822
 30
0.0
 11
-6.890036967093242
 21
1.935181376173332
 31
0.0
1001
REVIT
1002
{
1070
     2
1000
-2001350
1002
}
  0
LINE
  5
315
330
294
100
AcDbEntity
  8
5024A.65G
100
AcDbLine
 10
-6.890036967093242
 20
1.935181376173332
 30
0.0
 11
-6.885531751400249
 21
1.943466739380752
 31
0.0
1001
REVIT
1002
{
1070
     2
1000
-2001350
1002
}
  0
LINE
  5
316
330
294
100
AcDbEntity
  8
5024A.65G
100
AcDbLine
 10
-6.885531751400249
 20
1.943466739380752
 30
0.0
 11
-6.880698813241116
 21
1.951565314605403
 31
0.0
1001
REVIT
1002
{
1070
     2
1000
-2001350
1002
}
  0
LINE
  5
317
330
294
100
AcDbEntity
  8
5024A.65G
100
AcDbLine
 10
-6.880698813241116
 20
1.951565314605403
 30
0.0
 11
-6.875545884285939
 21
1.959464145854525
 31
0.0
1001
REVIT
1002
{
1070
     2
1000
-2001350
1002
}
  0
LINE
  5
318
330
294
100
AcDbEntity
  8
5024A.65G
100
AcDbLine
 10
-6.875545884285939
 20
1.959464145854525
 30
0.0
 11
-6.870081208121797
 21
1.967150596683119
 31
0.0
1001
REVIT
1002
{
1070
     2
1000
-2001350
1002
}
  0
LINE
  5
319
330
294
100
AcDbEntity
  8
5024A.65G
100
AcDbLine
 10
-6.870081208121797
 20
1.967150596683119
 30
0.0
 11
-6.86431352706483
 21
1.974612370409538
 31
0.0
1001
REVIT
1002
{
1070
     2
1000
-2001350
1002
}
  0
LINE
  5
31A
330
294
100
AcDbEntity
  8
5024A.65G
100
AcDbLine
 10
-6.86431352706483
 20
1.974612370409538
 30
0.0
 11
-6.858252068174347
 21
1.98183752978759
 31
0.0
1001
REVIT
1002
{
1070
     2
1000
-2001350
1002
}
  0
LINE
  5
31B
330
294
100
AcDbEntity
  8
5024A.65G
100
AcDbLine
 10
-6.858252068174347
 20
1.98183752978759
 30
0.0
 11
-6.851906528491539
 21
1.988814516103559
 31
0.0
1001
REVIT
1002
{
1070
     2
1000
-2001350
1002
}
  0
LINE
  5
31C
330
294
100
AcDbEntity
  8
5024A.65G
100
AcDbLine
 10
-6.851906528491539
 20
1.988814516103559
 30
0.0
 11
-6.845287059526246
 21
1.995532167667668
 31
0.0
1001
REVIT
1002
{
1070
     2
1000
-2001350
1002
}
  0
LINE
  5
31D
330
294
100
AcDbEntity
  8
5024A.65G
100
AcDbLine
 10
-6.845287059526246
 20
1.995532167667668
 30
0.0
 11
-6.838404251016746
 21
2.001979737670453
 31
0.0
1001
REVIT
1002
{
1070
     2
1000
-2001350
1002
}
  0
LINE
  5
31E
330
294
100
AcDbEntity
  8
5024A.65G
100
AcDbLine
 10
-6.838404251016746
 20
2.001979737670453
 30
0.0
 11
-6.831269113988389
 21
2.008146911375305
 31
0.0
1001
REVIT
1002
{
1070
     2
1000
-2001350
1002
}
  0
LINE
  5
31F
330
294
100
AcDbEntity
  8
5024A.65G
100
AcDbLine
 10
-6.831269113988389
 20
2.008146911375305
 30
0.0
 11
-6.823893063138345
 21
2.014023822619897
 31
0.0
1001
REVIT
1002
{
1070
     2
1000
-2001350
1002
}
  0
LINE
  5
320
330
294
100
AcDbEntity
  8
5024A.65G
100
AcDbLine
 10
-6.823893063138345
 20
2.014023822619897
 30
0.0
 11
-6.8162878985745
 21
2.019601069599907
 31
0.0
1001
REVIT
1002
{
1070
     2
1000
-2001350
1002
}
  0
LINE
  5
321
330
294
100
AcDbEntity
  8
5024A.65G
100
AcDbLine
 10
-6.8162878985745
 20
2.019601069599907
 30
0.0
 11
-6.808465786937804
 21
2.02486972990993
 31
0.0
1001
REVIT
1002
{
1070
     2
1000
-2001350
1002
}
  0
LINE
  5
322
330
294
100
AcDbEntity
  8
5024A.65G
100
AcDbLine
 10
-6.808465786937804
 20
2.02486972990993
 30
0.0
 11
-6.800439241938252
 21
2.029821374817373
 31
0.0
1001
REVIT
1002
{
1070
     2
1000
-2001350
1002
}
  0
LINE
  5
323
330
294
100
AcDbEntity
  8
5024A.65G
100
AcDbLine
 10
-6.800439241938252
 20
2.029821374817373
 30
0.0
 11
-6.792221104335602
 21
2.034448082746685
 31
0.0
1001
REVIT
1002
{
1070
     2
1000
-2001350
1002
}
  0
LINE
  5
324
330
294
100
AcDbEntity
  8
5024A.65G
100
AcDbLine
 10
-6.792221104335602
 20
2.034448082746685
 30
0.0
 11
-6.783824521396909
 21
2.03874245195216
 31
0.0
1001
REVIT
1002
{
1070
     2
1000
-2001350
1002
}
  0
LINE
  5
325
330
294
100
AcDbEntity
  8
5024A.65G
100
AcDbLine
 10
-6.783824521396909
 20
2.03874245195216
 30
0.0
 11
-6.775262925863705
 21
2.042697612359155
 31
0.0
1001
REVIT
1002
{
1070
     2
1000
-2001350
1002
}
  0
LINE
  5
326
330
294
100
AcDbEntity
  8
5024A.65G
100
AcDbLine
 10
-6.775262925863705
 20
2.042697612359155
 30
0.0
 11
-6.76655001446246
 21
2.046307236554731
 31
0.0
1001
REVIT
1002
{
1070
     2
1000
-2001350
1002
}
  0
LINE
  5
327
330
294
100
AcDbEntity
  8
5024A.65G
100
AcDbLine
 10
-6.76655001446246
 20
2.046307236554731
 30
0.0
 11
-6.757699725992763
 21
2.049565549910198
 31
0.0
1001
REVIT
1002
{
1070
     2
1000
-2001350
1002
}
  0
LINE
  5
328
330
294
100
AcDbEntity
  8
5024A.65G
100
AcDbLine
 10
-6.757699725992763
 20
2.049565549910198
 30
0.0
 11
-6.7487262190282
 21
2.052467339819251
 31
0.0
1001
REVIT
1002
{
1070
     2
1000
-2001350
1002
}
  0
LINE
  5
329
330
294
100
AcDbEntity
  8
5024A.65G
100
AcDbLine
 10
-6.7487262190282
 20
2.052467339819251
 30
0.0
 11
-6.739643849265682
 21
2.055007964037059
 31
0.0
1001
REVIT
1002
{
1070
     2
1000
-2001350
1002
}
  0
LINE
  5
32A
330
294
100
AcDbEntity
  8
5024A.65G
100
AcDbLine
 10
-6.739643849265682
 20
2.055007964037059
 30
0.0
 11
-6.730467146559345
 21
2.057183358106833
 31
0.0
1001
REVIT
1002
{
1070
     2
1000
-2001350
1002
}
  0
LINE
  5
32B
330
294
100
AcDbEntity
  8
5024A.65G
100
AcDbLine
 10
-6.730467146559345
 20
2.057183358106833
 30
0.0
 11
-6.721210791675939
 21
2.058990041862124
 31
0.0
1001
REVIT
1002
{
1070
     2
1000
-2001350
1002
}
  0
LINE
  5
32C
330
294
100
AcDbEntity
  8
5024A.65G
100
AcDbLine
 10
-6.721210791675939
 20
2.058990041862124
 30
0.0
 11
-6.711889592808683
 21
2.060425124994331
 31
0.0
1001
REVIT
1002
{
1070
     2
1000
-2001350
1002
}
  0
LINE
  5
32D
330
294
100
AcDbEntity
  8
5024A.65G
100
AcDbLine
 10
-6.711889592808683
 20
2.060425124994331
 30
0.0
 11
-6.702518461887354
 21
2.061486311676574
 31
0.0
1001
REVIT
1002
{
1070
     2
1000
-2001350
1002
}
  0
LINE
  5
32E
330
294
100
AcDbEntity
  8
5024A.65G
100
AcDbLine
 10
-6.702518461887354
 20
2.061486311676574
 30
0.0
 11
-6.693112390722354
 21
2.062171904236549
 31
0.0
1001
REVIT
1002
{
1070
     2
1000
-2001350
1002
}
  0
LINE
  5
32F
330
294
100
AcDbEntity
  8
5024A.65G
100
AcDbLine
 10
-6.693112390722354
 20
2.062171904236549
 30
0.0
 11
-6.683686427021034
 21
2.06248080587239
 31
0.0
1001
REVIT
1002
{
1070
     2
1000
-2001350
1002
}
  0
LINE
  5
330
330
294
100
AcDbEntity
  8
5024A.65G
100
AcDbLine
 10
-6.683686427021034
 20
2.06248080587239
 30
0.0
 11
-6.680677897675113
 21
2.062499999999992
 31
0.0
1001
REVIT
1002
{
1070
     2
1000
-2001350
1002
}
  0
LINE
  5
331
330
294
100
AcDbEntity
  8
5024A.65G
100
AcDbLine
 10
-3.852387702438774
 20
2.062499999999992
 30
0.0
 11
-4.178312645805148
 21
2.062499999999992
 31
0.0
1001
REVIT
1002
{
1070
     2
1000
-2001350
1002
}
  0
LINE
  5
332
330
294
100
AcDbEntity
  8
5024A.65G
100
AcDbLine
 10
-4.178312645805148
 20
2.062499999999992
 30
0.0
 11
-4.486166397977588
 21
2.062499999999992
 31
0.0
1001
REVIT
1002
{
1070
     2
1000
-2001350
1002
}
  0
LINE
  5
333
330
294
100
AcDbEntity
  8
5024A.65G
100
AcDbLine
 10
-4.486166397977588
 20
2.062499999999992
 30
0.0
 11
-4.775456458624589
 21
2.062499999999992
 31
0.0
1001
REVIT
1002
{
1070
     2
1000
-2001350
1002
}
  0
LINE
  5
334
330
294
100
AcDbEntity
  8
5024A.65G
100
AcDbLine
 10
-4.775456458624589
 20
2.062499999999992
 30
0.0
 11
-5.045720025361035
 21
2.062499999999992
 31
0.0
1001
REVIT
1002
{
1070
     2
1000
-2001350
1002
}
  0
LINE
  5
335
330
294
100
AcDbEntity
  8
5024A.65G
100
AcDbLine
 10
-5.045720025361035
 20
2.062499999999992
 30
0.0
 11
-5.2965247341333
 21
2.062499999999992
 31
0.0
1001
REVIT
1002
{
1070
     2
1000
-2001350
1002
}
  0
LINE
  5
336
330
294
100
AcDbEntity
  8
5024A.65G
100
AcDbLine
 10
-5.2965247341333
 20
2.062499999999992
 30
0.0
 11
-5.527469350909501
 21
2.062499999999992
 31
0.0
1001
REVIT
1002
{
1070
     2
1000
-2001350
1002
}
  0
LINE
  5
337
330
294
100
AcDbEntity
  8
5024A.65G
100
AcDbLine
 10
-5.527469350909501
 20
2.062499999999992
 30
0.0
 11
-5.738184413568352
 21
2.062499999999992
 31
0.0
1001
REVIT
1002
{
1070
     2
1000
-2001350
1002
}
  0
LINE
  5
338
330
294
100
AcDbEntity
  8
5024A.65G
100
AcDbLine
 10
-5.738184413568352
 20
2.062499999999992
 30
0.0
 11
-5.928332822959747
 21
2.062499999999992
 31
0.0
1001
REVIT
1002
{
1070
     2
1000
-2001350
1002
}
  0
LINE
  5
339
330
294
100
AcDbEntity
  8
5024A.65G
100
AcDbLine
 10
-5.928332822959747
 20
2.062499999999992
 30
0.0
 11
-6.097610382191488
 21
2.062499999999992
 31
0.0
1001
REVIT
1002
{
1070
     2
1000
-2001350
1002
}
  0
LINE
  5
33A
330
294
100
AcDbEntity
  8
5024A.65G
100
AcDbLine
 10
-6.097610382191488
 20
2.062499999999992
 30
0.0
 11
-6.245746283279434
 21
2.062499999999992
 31
0.0
1001
REVIT
1002
{
1070
     2
1000
-2001350
1002
}
  0
LINE
  5
33B
330
294
100
AcDbEntity
  8
5024A.65G
100
AcDbLine
 10
-6.245746283279434
 20
2.062499999999992
 30
0.0
 11
-6.372503540382479
 21
2.062499999999992
 31
0.0
1001
REVIT
1002
{
1070
     2
1000
-2001350
1002
}
  0
LINE
  5
33C
330
294
100
AcDbEntity
  8
5024A.65G
100
AcDbLine
 10
-6.372503540382479
 20
2.062499999999992
 30
0.0
 11
-6.477679368929359
 21
2.062499999999992
 31
0.0
1001
REVIT
1002
{
1070
     2
1000
-2001350
1002
}
  0
LINE
  5
33D
330
294
100
AcDbEntity
  8
5024A.65G
100
AcDbLine
 10
-6.477679368929359
 20
2.062499999999992
 30
0.0
 11
-6.56110551003072
 21
2.062499999999992
 31
0.0
1001
REVIT
1002
{
1070
     2
1000
-2001350
1002
}
  0
LINE
  5
33E
330
294
100
AcDbEntity
  8
5024A.65G
100
AcDbLine
 10
-6.56110551003072
 20
2.062499999999992
 30
0.0
 11
-6.622648499657421
 21
2.062499999999992
 31
0.0
1001
REVIT
1002
{
1070
     2
1000
-2001350
1002
}
  0
LINE
  5
33F
330
294
100
AcDbEntity
  8
5024A.65G
100
AcDbLine
 10
-6.622648499657421
 20
2.062499999999992
 30
0.0
 11
-6.662209882154534
 21
2.062499999999992
 31
0.0
1001
REVIT
1002
{
1070
     2
1000
-2001350
1002
}
  0
LINE
  5
340
330
294
100
AcDbEntity
  8
5024A.65G
100
AcDbLine
 10
-6.662209882154534
 20
2.062499999999992
 30
0.0
 11
-6.679726367749375
 21
2.062499999999992
 31
0.0
1001
REVIT
1002
{
1070
     2
1000
-2001350
1002
}
  0
LINE
  5
341
330
294
100
AcDbEntity
  8
5024A.65G
100
AcDbLine
 10
-6.679726367749375
 20
2.062499999999992
 30
0.0
 11
-6.680677897675113
 21
2.062499999999992
 31
0.0
1001
REVIT
1002
{
1070
     2
1000
-2001350
1002
}
  0
LINE
  5
342
330
294
100
AcDbEntity
  8
5024A.65G
100
AcDbLine
 10
-6.680677897675113
 20
2.062499999999992
 30
0.0
 11
-6.669640676781377
 21
2.062499999999992
 31
0.0
1001
REVIT
1002
{
1070
     2
1000
-2001350
1002
}
  0
LINE
  5
343
330
294
100
AcDbEntity
  8
5024A.65G
100
AcDbLine
 10
-6.669640676781377
 20
2.062499999999992
 30
0.0
 11
-6.636546671299117
 21
2.062499999999992
 31
0.0
1001
REVIT
1002
{
1070
     2
1000
-2001350
1002
}
  0
LINE
  5
344
330
294
100
AcDbEntity
  8
5024A.65G
100
AcDbLine
 10
-6.636546671299117
 20
2.062499999999992
 30
0.0
 11
-6.581448824577426
 21
2.062499999999992
 31
0.0
1001
REVIT
1002
{
1070
     2
1000
-2001350
1002
}
  0
LINE
  5
345
330
294
100
AcDbEntity
  8
5024A.65G
100
AcDbLine
 10
-6.581448824577426
 20
2.062499999999992
 30
0.0
 11
-6.50443528141748
 21
2.062499999999992
 31
0.0
1001
REVIT
1002
{
1070
     2
1000
-2001350
1002
}
  0
LINE
  5
346
330
294
100
AcDbEntity
  8
5024A.65G
100
AcDbLine
 10
-6.50443528141748
 20
2.062499999999992
 30
0.0
 11
-6.405629247059655
 21
2.062499999999992
 31
0.0
1001
REVIT
1002
{
1070
     2
1000
-2001350
1002
}
  0
LINE
  5
347
330
294
100
AcDbEntity
  8
5024A.65G
100
AcDbLine
 10
-6.405629247059655
 20
2.062499999999992
 30
0.0
 11
-6.285188790081424
 21
2.062499999999992
 31
0.0
1001
REVIT
1002
{
1070
     2
1000
-2001350
1002
}
  0
LINE
  5
348
330
294
100
AcDbEntity
  8
5024A.65G
100
AcDbLine
 10
-6.285188790081424
 20
2.062499999999992
 30
0.0
 11
-6.143306589521364
 21
2.062499999999992
 31
0.0
1001
REVIT
1002
{
1070
     2
1000
-2001350
1002
}
  0
LINE
  5
349
330
294
100
AcDbEntity
  8
5024A.65G
100
AcDbLine
 10
-6.143306589521364
 20
2.062499999999992
 30
0.0
 11
-5.980209626633779
 21
2.062499999999992
 31
0.0
1001
REVIT
1002
{
1070
     2
1000
-2001350
1002
}
  0
LINE
  5
34A
330
294
100
AcDbEntity
  8
5024A.65G
100
AcDbLine
 10
-5.980209626633779
 20
2.062499999999992
 30
0.0
 11
-5.796158821767123
 21
2.062499999999992
 31
0.0
1001
REVIT
1002
{
1070
     2
1000
-2001350
1002
}
  0
LINE
  5
34B
330
294
100
AcDbEntity
  8
5024A.65G
100
AcDbLine
 10
-5.796158821767123
 20
2.062499999999992
 30
0.0
 11
-5.591448616947112
 21
2.062499999999992
 31
0.0
1001
REVIT
1002
{
1070
     2
1000
-2001350
1002
}
  0
LINE
  5
34C
330
294
100
AcDbEntity
  8
5024A.65G
100
AcDbLine
 10
-5.591448616947112
 20
2.062499999999992
 30
0.0
 11
-5.36640650483227
 21
2.062499999999992
 31
0.0
1001
REVIT
1002
{
1070
     2
1000
-2001350
1002
}
  0
LINE
  5
34D
330
294
100
AcDbEntity
  8
5024A.65G
100
AcDbLine
 10
-5.36640650483227
 20
2.062499999999992
 30
0.0
 11
-5.121392504795566
 21
2.062499999999992
 31
0.0
1001
REVIT
1002
{
1070
     2
1000
-2001350
1002
}
  0
LINE
  5
34E
330
294
100
AcDbEntity
  8
5024A.65G
100
AcDbLine
 10
-5.121392504795566
 20
2.062499999999992
 30
0.0
 11
-4.920299930072878
 21
2.062499999999992
 31
0.0
1001
REVIT
1002
{
1070
     2
1000
-2001350
1002
}
  0
LINE
  5
34F
330
294
100
AcDbEntity
  8
5024A.65G
100
AcDbLine
 10
-6.96876917476987
 20
1.166215701578238
 30
0.0
 11
-6.965223564424914
 21
1.343472580793459
 31
0.0
1001
REVIT
1002
{
1070
     2
1000
-2001350
1002
}
  0
LINE
  5
350
330
294
100
AcDbEntity
  8
5024A.65G
100
AcDbLine
 10
-6.965223564424914
 20
1.343472580793459
 30
0.0
 11
-6.954592405610234
 21
1.520445886814727
 31
0.0
1001
REVIT
1002
{
1070
     2
1000
-2001350
1002
}
  0
LINE
  5
351
330
294
100
AcDbEntity
  8
5024A.65G
100
AcDbLine
 10
-6.954592405610234
 20
1.520445886814727
 30
0.0
 11
-6.93689270591208
 21
1.696852500104689
 31
0.0
1001
REVIT
1002
{
1070
     2
1000
-2001350
1002
}
  0
LINE
  5
352
330
294
100
AcDbEntity
  8
5024A.65G
100
AcDbLine
 10
-6.93689270591208
 20
1.696852500104689
 30
0.0
 11
-6.913530823400916
 21
1.863817442866363
 31
0.0
1001
REVIT
1002
{
1070
     2
1000
-2001350
1002
}
  0
LINE
  5
353
330
294
100
AcDbEntity
  8
5024A.65G
100
AcDbLine
 10
4.081428092922601
 20
0.9162157015782383
 30
0.0
 11
6.965430189404457
 21
0.9162157015782383
 31
0.0
1001
REVIT
1002
{
1070
     2
1000
-2001350
1002
}
  0
LINE
  5
354
330
294
100
AcDbEntity
  8
5024A.65G
100
AcDbLine
 10
-4.081428092922665
 20
0.9162157015782383
 30
0.0
 11
4.081428092922652
 21
0.9162157015782383
 31
0.0
1001
REVIT
1002
{
1070
     2
1000
-2001350
1002
}
  0
LINE
  5
355
330
294
100
AcDbEntity
  8
5024A.65G
100
AcDbLine
 10
-6.965430189404403
 20
0.9162157015782383
 30
0.0
 11
-4.081428092922657
 21
0.9162157015782383
 31
0.0
1001
REVIT
1002
{
1070
     2
1000
-2001350
1002
}
  0
LINE
  5
356
330
294
100
AcDbEntity
  8
5024A.65G
100
AcDbLine
 10
-7.06251917476988
 20
0.6662157015782384
 30
0.0
 11
-7.06251917476988
 21
0.0
 31
0.0
1001
REVIT
1002
{
1070
     2
1000
-2001350
1002
}
  0
LINE
  5
357
330
294
100
AcDbEntity
  8
5024A.65G
100
AcDbLine
 10
7.062519174769922
 20
0.0
 30
0.0
 11
7.062519174769922
 21
0.6662157015782384
 31
0.0
1001
REVIT
1002
{
1070
     2
1000
-2001350
1002
}
  0
LINE
  5
358
330
294
100
AcDbEntity
  8
5024A.65G
100
AcDbLine
 10
6.822516508316575
 20
0.9160157282434866
 30
0.0
 11
6.832497848262211
 21
0.9154161281538932
 31
0.0
1001
REVIT
1002
{
1070
     2
1000
-2001350
1002
}
  0
LINE
  5
359
330
294
100
AcDbEntity
  8
5024A.65G
100
AcDbLine
 10
6.832497848262211
 20
0.9154161281538932
 30
0.0
 11
6.842447226592144
 21
0.9144178605417039
 31
0.0
1001
REVIT
1002
{
1070
     2
1000
-2001350
1002
}
  0
LINE
  5
35A
330
294
100
AcDbEntity
  8
5024A.65G
100
AcDbLine
 10
6.842447226592144
 20
0.9144178605417039
 30
0.0
 11
6.852348726423477
 21
0.9130225224221462
 31
0.0
1001
REVIT
1002
{
1070
     2
1000
-2001350
1002
}
  0
LINE
  5
35B
330
294
100
AcDbEntity
  8
5024A.65G
100
AcDbLine
 10
6.852348726423477
 20
0.9130225224221462
 30
0.0
 11
6.86218650746868
 21
0.9112323460385525
 31
0.0
1001
REVIT
1002
{
1070
     2
1000
-2001350
1002
}
  0
LINE
  5
35C
330
294
100
AcDbEntity
  8
5024A.65G
100
AcDbLine
 10
6.86218650746868
 20
0.9112323460385525
 30
0.0
 11
6.871944831376697
 21
0.9090501952912504
 31
0.0
1001
REVIT
1002
{
1070
     2
1000
-2001350
1002
}
  0
LINE
  5
35D
330
294
100
AcDbEntity
  8
5024A.65G
100
AcDbLine
 10
6.871944831376697
 20
0.9090501952912504
 30
0.0
 11
6.881608086910943
 21
0.9064795611559333
 31
0.0
1001
REVIT
1002
{
1070
     2
1000
-2001350
1002
}
  0
LINE
  5
35E
330
294
100
AcDbEntity
  8
5024A.65G
100
AcDbLine
 10
6.881608086910943
 20
0.9064795611559333
 30
0.0
 11
6.891160814923945
 21
0.9035245560988514
 31
0.0
1001
REVIT
1002
{
1070
     2
1000
-2001350
1002
}
  0
LINE
  5
35F
330
294
100
AcDbEntity
  8
5024A.65G
100
AcDbLine
 10
6.891160814923945
 20
0.9035245560988514
 30
0.0
 11
6.900587733088687
 21
0.9001899074977259
 31
0.0
1001
REVIT
1002
{
1070
     2
1000
-2001350
1002
}
  0
LINE
  5
360
330
294
100
AcDbEntity
  8
5024A.65G
100
AcDbLine
 10
6.900587733088687
 20
0.9001899074977259
 30
0.0
 11
6.909873760347077
 21
0.8964809500789598
 31
0.0
1001
REVIT
1002
{
1070
     2
1000
-2001350
1002
}
  0
LINE
  5
361
330
294
100
AcDbEntity
  8
5024A.65G
100
AcDbLine
 10
6.909873760347077
 20
0.8964809500789598
 30
0.0
 11
6.919004041036415
 21
0.8924036173832305
 31
0.0
1001
REVIT
1002
{
1070
     2
1000
-2001350
1002
}
  0
LINE
  5
362
330
294
100
AcDbEntity
  8
5024A.65G
100
AcDbLine
 10
6.919004041036415
 20
0.8924036173832305
 30
0.0
 11
6.92796396865529
 21
0.8879644322730584
 31
0.0
1001
REVIT
1002
{
1070
     2
1000
-2001350
1002
}
  0
LINE
  5
363
330
294
100
AcDbEntity
  8
5024A.65G
100
AcDbLine
 10
6.92796396865529
 20
0.8879644322730584
 30
0.0
 11
6.936739209230849
 21
0.8831704964976552
 31
0.0
1001
REVIT
1002
{
1070
     2
1000
-2001350
1002
}
  0
LINE
  5
364
330
294
100
AcDbEntity
  8
5024A.65G
100
AcDbLine
 10
6.936739209230849
 20
0.8831704964976552
 30
0.0
 11
6.945315724250138
 21
0.8780294793315945
 31
0.0
1001
REVIT
1002
{
1070
     2
1000
-2001350
1002
}
  0
LINE
  5
365
330
294
100
AcDbEntity
  8
5024A.65G
100
AcDbLine
 10
6.945315724250138
 20
0.8780294793315945
 30
0.0
 11
6.953679793118673
 21
0.8725496053056573
 31
0.0
1001
REVIT
1002
{
1070
     2
1000
-2001350
1002
}
  0
LINE
  5
366
330
294
100
AcDbEntity
  8
5024A.65G
100
AcDbLine
 10
6.953679793118673
 20
0.8725496053056573
 30
0.0
 11
6.961818035110513
 21
0.866739641049314
 31
0.0
1001
REVIT
1002
{
1070
     2
1000
-2001350
1002
}
  0
LINE
  5
367
330
294
100
AcDbEntity
  8
5024A.65G
100
AcDbLine
 10
6.961818035110513
 20
0.866739641049314
 30
0.0
 11
6.969717430774532
 21
0.8606088812659749
 31
0.0
1001
REVIT
1002
{
1070
     2
1000
-2001350
1002
}
  0
LINE
  5
368
330
294
100
AcDbEntity
  8
5024A.65G
100
AcDbLine
 10
6.969717430774532
 20
0.8606088812659749
 30
0.0
 11
6.977365342762783
 21
0.8541671338634628
 31
0.0
1001
REVIT
1002
{
1070
     2
1000
-2001350
1002
}
  0
LINE
  5
369
330
294
100
AcDbEntity
  8
5024A.65G
100
AcDbLine
 10
6.977365342762783
 20
0.8541671338634628
 30
0.0
 11
6.984749536047554
 21
0.8474247042634672
 31
0.0
1001
REVIT
1002
{
1070
     2
1000
-2001350
1002
}
  0
LINE
  5
36A
330
294
100
AcDbEntity
  8
5024A.65G
100
AcDbLine
 10
6.984749536047554
 20
0.8474247042634672
 30
0.0
 11
6.991858197494795
 21
0.840392378915034
 31
0.0
1001
REVIT
1002
{
1070
     2
1000
-2001350
1002
}
  0
LINE
  5
36B
330
294
100
AcDbEntity
  8
5024A.65G
100
AcDbLine
 10
6.991858197494795
 20
0.840392378915034
 30
0.0
 11
6.998679954762629
 21
0.8330814080385664
 31
0.0
1001
REVIT
1002
{
1070
     2
1000
-2001350
1002
}
  0
LINE
  5
36C
330
294
100
AcDbEntity
  8
5024A.65G
100
AcDbLine
 10
6.998679954762629
 20
0.8330814080385664
 30
0.0
 11
7.005203894494658
 21
0.8255034876278841
 31
0.0
1001
REVIT
1002
{
1070
     2
1000
-2001350
1002
}
  0
LINE
  5
36D
330
294
100
AcDbEntity
  8
5024A.65G
100
AcDbLine
 10
7.005203894494658
 20
0.8255034876278841
 30
0.0
 11
7.011419579779011
 21
0.8176707407391035
 31
0.0
1001
REVIT
1002
{
1070
     2
1000
-2001350
1002
}
  0
LINE
  5
36E
330
294
100
AcDbEntity
  8
5024A.65G
100
AcDbLine
 10
7.011419579779011
 20
0.8176707407391035
 30
0.0
 11
7.017317066845166
 21
0.8095956980963521
 31
0.0
1001
REVIT
1002
{
1070
     2
1000
-2001350
1002
}
  0
LINE
  5
36F
330
294
100
AcDbEntity
  8
5024A.65G
100
AcDbLine
 10
7.017317066845166
 20
0.8095956980963521
 30
0.0
 11
7.022886920971891
 21
0.8012912780452765
 31
0.0
1001
REVIT
1002
{
1070
     2
1000
-2001350
1002
}
  0
LINE
  5
370
330
294
100
AcDbEntity
  8
5024A.65G
100
AcDbLine
 10
7.022886920971891
 20
0.8012912780452765
 30
0.0
 11
7.028120231580753
 21
0.7927707658864378
 31
0.0
1001
REVIT
1002
{
1070
     2
1000
-2001350
1002
}
  0
LINE
  5
371
330
294
100
AcDbEntity
  8
5024A.65G
100
AcDbLine
 10
7.028120231580753
 20
0.7927707658864378
 30
0.0
 11
7.033008626491159
 21
0.7840477926216778
 31
0.0
1001
REVIT
1002
{
1070
     2
1000
-2001350
1002
}
  0
LINE
  5
372
330
294
100
AcDbEntity
  8
5024A.65G
100
AcDbLine
 10
7.033008626491159
 20
0.7840477926216778
 30
0.0
 11
7.037544285314042
 21
0.7751363131474207
 31
0.0
1001
REVIT
1002
{
1070
     2
1000
-2001350
1002
}
  0
LINE
  5
373
330
294
100
AcDbEntity
  8
5024A.65G
100
AcDbLine
 10
7.037544285314042
 20
0.7751363131474207
 30
0.0
 11
7.04171995196286
 21
0.7660505839298111
 31
0.0
1001
REVIT
1002
{
1070
     2
1000
-2001350
1002
}
  0
LINE
  5
374
330
294
100
AcDbEntity
  8
5024A.65G
100
AcDbLine
 10
7.04171995196286
 20
0.7660505839298111
 30
0.0
 11
7.045528946261721
 21
0.7568051401974074
 31
0.0
1001
REVIT
1002
{
1070
     2
1000
-2001350
1002
}
  0
LINE
  5
375
330
294
100
AcDbEntity
  8
5024A.65G
100
AcDbLine
 10
7.045528946261721
 20
0.7568051401974074
 30
0.0
 11
7.048965174632301
 21
0.7474147726879324
 31
0.0
1001
REVIT
1002
{
1070
     2
1000
-2001350
1002
}
  0
LINE
  5
376
330
294
100
AcDbEntity
  8
5024A.65G
100
AcDbLine
 10
7.048965174632301
 20
0.7474147726879324
 30
0.0
 11
7.052023139842225
 21
0.7378945039862331
 31
0.0
1001
REVIT
1002
{
1070
     2
1000
-2001350
1002
}
  0
LINE
  5
377
330
294
100
AcDbEntity
  8
5024A.65G
100
AcDbLine
 10
7.052023139842225
 20
0.7378945039862331
 30
0.0
 11
7.054697949799485
 21
0.7282595644913315
 31
0.0
1001
REVIT
1002
{
1070
     2
1000
-2001350
1002
}
  0
LINE
  5
378
330
294
100
AcDbEntity
  8
5024A.65G
100
AcDbLine
 10
7.054697949799485
 20
0.7282595644913315
 30
0.0
 11
7.056985325378746
 21
0.7185253680510968
 31
0.0
1001
REVIT
1002
{
1070
     2
1000
-2001350
1002
}
  0
LINE
  5
379
330
294
100
AcDbEntity
  8
5024A.65G
100
AcDbLine
 10
7.056985325378746
 20
0.7185253680510968
 30
0.0
 11
7.058881607267035
 21
0.7087074873033004
 31
0.0
1001
REVIT
1002
{
1070
     2
1000
-2001350
1002
}
  0
LINE
  5
37A
330
294
100
AcDbEntity
  8
5024A.65G
100
AcDbLine
 10
7.058881607267035
 20
0.7087074873033004
 30
0.0
 11
7.060383761817837
 21
0.6988216287627794
 31
0.0
1001
REVIT
1002
{
1070
     2
1000
-2001350
1002
}
  0
LINE
  5
37B
330
294
100
AcDbEntity
  8
5024A.65G
100
AcDbLine
 10
7.060383761817837
 20
0.6988216287627794
 30
0.0
 11
7.061489385904329
 21
0.6888836076943221
 31
0.0
1001
REVIT
1002
{
1070
     2
1000
-2001350
1002
}
  0
LINE
  5
37C
330
294
100
AcDbEntity
  8
5024A.65G
100
AcDbLine
 10
7.061489385904329
 20
0.6888836076943221
 30
0.0
 11
7.062196710763813
 21
0.6789093228116343
 31
0.0
1001
REVIT
1002
{
1070
     2
1000
-2001350
1002
}
  0
LINE
  5
37D
330
294
100
AcDbEntity
  8
5024A.65G
100
AcDbLine
 10
7.062196710763813
 20
0.6789093228116343
 30
0.0
 11
7.062504604827409
 21
0.6689147308428077
 31
0.0
1001
REVIT
1002
{
1070
     2
1000
-2001350
1002
}
  0
LINE
  5
37E
330
294
100
AcDbEntity
  8
5024A.65G
100
AcDbLine
 10
7.062504604827409
 20
0.6689147308428077
 30
0.0
 11
7.06251917476992
 21
0.6662157015782384
 31
0.0
1001
REVIT
1002
{
1070
     2
1000
-2001350
1002
}
  0
LINE
  5
37F
330
294
100
AcDbEntity
  8
5024A.65G
100
AcDbLine
 10
-7.062519174769881
 20
0.6662157015782384
 30
0.0
 11
-7.062319201435125
 21
0.6762130351248957
 31
0.0
1001
REVIT
1002
{
1070
     2
1000
-2001350
1002
}
  0
LINE
  5
380
330
294
100
AcDbEntity
  8
5024A.65G
100
AcDbLine
 10
-7.062319201435125
 20
0.6762130351248957
 30
0.0
 11
-7.061719601345538
 21
0.6861943750705351
 31
0.0
1001
REVIT
1002
{
1070
     2
1000
-2001350
1002
}
  0
LINE
  5
381
330
294
100
AcDbEntity
  8
5024A.65G
100
AcDbLine
 10
-7.061719601345538
 20
0.6861943750705351
 30
0.0
 11
-7.060721333733352
 21
0.6961437534004702
 31
0.0
1001
REVIT
1002
{
1070
     2
1000
-2001350
1002
}
  0
LINE
  5
382
330
294
100
AcDbEntity
  8
5024A.65G
100
AcDbLine
 10
-7.060721333733352
 20
0.6961437534004702
 30
0.0
 11
-7.059325995613789
 21
0.7060452532317996
 31
0.0
1001
REVIT
1002
{
1070
     2
1000
-2001350
1002
}
  0
LINE
  5
383
330
294
100
AcDbEntity
  8
5024A.65G
100
AcDbLine
 10
-7.059325995613789
 20
0.7060452532317996
 30
0.0
 11
-7.057535819230191
 21
0.715883034277006
 31
0.0
1001
REVIT
1002
{
1070
     2
1000
-2001350
1002
}
  0
LINE
  5
384
330
294
100
AcDbEntity
  8
5024A.65G
100
AcDbLine
 10
-7.057535819230191
 20
0.715883034277006
 30
0.0
 11
-7.055353668482893
 21
0.7256413581850226
 31
0.0
1001
REVIT
1002
{
1070
     2
1000
-2001350
1002
}
  0
LINE
  5
385
330
294
100
AcDbEntity
  8
5024A.65G
100
AcDbLine
 10
-7.055353668482893
 20
0.7256413581850226
 30
0.0
 11
-7.052783034347578
 21
0.735304613719265
 31
0.0
1001
REVIT
1002
{
1070
     2
1000
-2001350
1002
}
  0
LINE
  5
386
330
294
100
AcDbEntity
  8
5024A.65G
100
AcDbLine
 10
-7.052783034347578
 20
0.735304613719265
 30
0.0
 11
-7.049828029290493
 21
0.7448573417322706
 31
0.0
1001
REVIT
1002
{
1070
     2
1000
-2001350
1002
}
  0
LINE
  5
387
330
294
100
AcDbEntity
  8
5024A.65G
100
AcDbLine
 10
-7.049828029290493
 20
0.7448573417322706
 30
0.0
 11
-7.046493380689366
 21
0.7542842598970126
 31
0.0
1001
REVIT
1002
{
1070
     2
1000
-2001350
1002
}
  0
LINE
  5
388
330
294
100
AcDbEntity
  8
5024A.65G
100
AcDbLine
 10
-7.046493380689366
 20
0.7542842598970126
 30
0.0
 11
-7.042784423270607
 21
0.7635702871554031
 31
0.0
1001
REVIT
1002
{
1070
     2
1000
-2001350
1002
}
  0
LINE
  5
389
330
294
100
AcDbEntity
  8
5024A.65G
100
AcDbLine
 10
-7.042784423270607
 20
0.7635702871554031
 30
0.0
 11
-7.038707090574872
 21
0.772700567844737
 31
0.0
1001
REVIT
1002
{
1070
     2
1000
-2001350
1002
}
  0
LINE
  5
38A
330
294
100
AcDbEntity
  8
5024A.65G
100
AcDbLine
 10
-7.038707090574872
 20
0.772700567844737
 30
0.0
 11
-7.034267905464703
 21
0.781660495463612
 31
0.0
1001
REVIT
1002
{
1070
     2
1000
-2001350
1002
}
  0
LINE
  5
38B
330
294
100
AcDbEntity
  8
5024A.65G
100
AcDbLine
 10
-7.034267905464703
 20
0.781660495463612
 30
0.0
 11
-7.029473969689295
 21
0.7904357360391714
 31
0.0
1001
REVIT
1002
{
1070
     2
1000
-2001350
1002
}
  0
LINE
  5
38C
330
294
100
AcDbEntity
  8
5024A.65G
100
AcDbLine
 10
-7.029473969689295
 20
0.7904357360391714
 30
0.0
 11
-7.024332952523235
 21
0.799012251058457
 31
0.0
1001
REVIT
1002
{
1070
     2
1000
-2001350
1002
}
  0
LINE
  5
38D
330
294
100
AcDbEntity
  8
5024A.65G
100
AcDbLine
 10
-7.024332952523235
 20
0.799012251058457
 30
0.0
 11
-7.018853078497302
 21
0.8073763199269947
 31
0.0
1001
REVIT
1002
{
1070
     2
1000
-2001350
1002
}
  0
LINE
  5
38E
330
294
100
AcDbEntity
  8
5024A.65G
100
AcDbLine
 10
-7.018853078497302
 20
0.8073763199269947
 30
0.0
 11
-7.013043114240954
 21
0.8155145619188388
 31
0.0
1001
REVIT
1002
{
1070
     2
1000
-2001350
1002
}
  0
LINE
  5
38F
330
294
100
AcDbEntity
  8
5024A.65G
100
AcDbLine
 10
-7.013043114240954
 20
0.8155145619188388
 30
0.0
 11
-7.006912354457615
 21
0.8234139575828578
 31
0.0
1001
REVIT
1002
{
1070
     2
1000
-2001350
1002
}
  0
LINE
  5
390
330
294
100
AcDbEntity
  8
5024A.65G
100
AcDbLine
 10
-7.006912354457615
 20
0.8234139575828578
 30
0.0
 11
-7.000470607055107
 21
0.8310618695711085
 31
0.0
1001
REVIT
1002
{
1070
     2
1000
-2001350
1002
}
  0
LINE
  5
391
330
294
100
AcDbEntity
  8
5024A.65G
100
AcDbLine
 10
-7.000470607055107
 20
0.8310618695711085
 30
0.0
 11
-6.993728177455107
 21
0.8384460628558798
 31
0.0
1001
REVIT
1002
{
1070
     2
1000
-2001350
1002
}
  0
LINE
  5
392
330
294
100
AcDbEntity
  8
5024A.65G
100
AcDbLine
 10
-6.993728177455107
 20
0.8384460628558798
 30
0.0
 11
-6.986695852106674
 21
0.8455547243031205
 31
0.0
1001
REVIT
1002
{
1070
     2
1000
-2001350
1002
}
  0
LINE
  5
393
330
294
100
AcDbEntity
  8
5024A.65G
100
AcDbLine
 10
-6.986695852106674
 20
0.8455547243031205
 30
0.0
 11
-6.979384881230208
 21
0.8523764815709569
 31
0.0
1001
REVIT
1002
{
1070
     2
1000
-2001350
1002
}
  0
LINE
  5
394
330
294
100
AcDbEntity
  8
5024A.65G
100
AcDbLine
 10
-6.979384881230208
 20
0.8523764815709569
 30
0.0
 11
-6.971806960819526
 21
0.8589004213029838
 31
0.0
1001
REVIT
1002
{
1070
     2
1000
-2001350
1002
}
  0
LINE
  5
395
330
294
100
AcDbEntity
  8
5024A.65G
100
AcDbLine
 10
-6.971806960819526
 20
0.8589004213029838
 30
0.0
 11
-6.963974213930746
 21
0.8651161065873296
 31
0.0
1001
REVIT
1002
{
1070
     2
1000
-2001350
1002
}
  0
LINE
  5
396
330
294
100
AcDbEntity
  8
5024A.65G
100
AcDbLine
 10
-6.963974213930746
 20
0.8651161065873296
 30
0.0
 11
-6.955899171287996
 21
0.8710135936534868
 31
0.0
1001
REVIT
1002
{
1070
     2
1000
-2001350
1002
}
  0
LINE
  5
397
330
294
100
AcDbEntity
  8
5024A.65G
100
AcDbLine
 10
-6.955899171287996
 20
0.8710135936534868
 30
0.0
 11
-6.947594751236915
 21
0.876583447780213
 31
0.0
1001
REVIT
1002
{
1070
     2
1000
-2001350
1002
}
  0
LINE
  5
398
330
294
100
AcDbEntity
  8
5024A.65G
100
AcDbLine
 10
-6.947594751236915
 20
0.876583447780213
 30
0.0
 11
-6.939074239078075
 21
0.8818167583890712
 31
0.0
1001
REVIT
1002
{
1070
     2
1000
-2001350
1002
}
  0
LINE
  5
399
330
294
100
AcDbEntity
  8
5024A.65G
100
AcDbLine
 10
-6.939074239078075
 20
0.8818167583890712
 30
0.0
 11
-6.930351265813319
 21
0.8867051532994736
 31
0.0
1001
REVIT
1002
{
1070
     2
1000
-2001350
1002
}
  0
LINE
  5
39A
330
294
100
AcDbEntity
  8
5024A.65G
100
AcDbLine
 10
-6.930351265813319
 20
0.8867051532994736
 30
0.0
 11
-6.92143978633906
 21
0.8912408121223691
 31
0.0
1001
REVIT
1002
{
1070
     2
1000
-2001350
1002
}
  0
LINE
  5
39B
330
294
100
AcDbEntity
  8
5024A.65G
100
AcDbLine
 10
-6.92143978633906
 20
0.8912408121223691
 30
0.0
 11
-6.91235405712145
 21
0.8954164787711818
 31
0.0
1001
REVIT
1002
{
1070
     2
1000
-2001350
1002
}
  0
LINE
  5
39C
330
294
100
AcDbEntity
  8
5024A.65G
100
AcDbLine
 10
-6.91235405712145
 20
0.8954164787711818
 30
0.0
 11
-6.90310861338905
 21
0.8992254730700466
 31
0.0
1001
REVIT
1002
{
1070
     2
1000
-2001350
1002
}
  0
LINE
  5
39D
330
294
100
AcDbEntity
  8
5024A.65G
100
AcDbLine
 10
-6.90310861338905
 20
0.8992254730700466
 30
0.0
 11
-6.893718245879575
 21
0.9026617014406213
 31
0.0
1001
REVIT
1002
{
1070
     2
1000
-2001350
1002
}
  0
LINE
  5
39E
330
294
100
AcDbEntity
  8
5024A.65G
100
AcDbLine
 10
-6.893718245879575
 20
0.9026617014406213
 30
0.0
 11
-6.88419797717787
 21
0.9057196666505475
 31
0.0
1001
REVIT
1002
{
1070
     2
1000
-2001350
1002
}
  0
LINE
  5
39F
330
294
100
AcDbEntity
  8
5024A.65G
100
AcDbLine
 10
-6.88419797717787
 20
0.9057196666505475
 30
0.0
 11
-6.874563037682974
 21
0.9083944766078033
 31
0.0
1001
REVIT
1002
{
1070
     2
1000
-2001350
1002
}
  0
LINE
  5
3A0
330
294
100
AcDbEntity
  8
5024A.65G
100
AcDbLine
 10
-6.874563037682974
 20
0.9083944766078033
 30
0.0
 11
-6.864828841242737
 21
0.9106818521870678
 31
0.0
1001
REVIT
1002
{
1070
     2
1000
-2001350
1002
}
  0
LINE
  5
3A1
330
294
100
AcDbEntity
  8
5024A.65G
100
AcDbLine
 10
-6.864828841242737
 20
0.9106818521870678
 30
0.0
 11
-6.855010960494943
 21
0.9125781340753533
 31
0.0
1001
REVIT
1002
{
1070
     2
1000
-2001350
1002
}
  0
LINE
  5
3A2
330
294
100
AcDbEntity
  8
5024A.65G
100
AcDbLine
 10
-6.855010960494943
 20
0.9125781340753533
 30
0.0
 11
-6.84512510195442
 21
0.9140802886261596
 31
0.0
1001
REVIT
1002
{
1070
     2
1000
-2001350
1002
}
  0
LINE
  5
3A3
330
294
100
AcDbEntity
  8
5024A.65G
100
AcDbLine
 10
-6.84512510195442
 20
0.9140802886261596
 30
0.0
 11
-6.83518708088596
 21
0.9151859127126513
 31
0.0
1001
REVIT
1002
{
1070
     2
1000
-2001350
1002
}
  0
LINE
  5
3A4
330
294
100
AcDbEntity
  8
5024A.65G
100
AcDbLine
 10
-6.83518708088596
 20
0.9151859127126513
 30
0.0
 11
-6.825212796003277
 21
0.9158932375721349
 31
0.0
1001
REVIT
1002
{
1070
     2
1000
-2001350
1002
}
  0
LINE
  5
3A5
330
294
100
AcDbEntity
  8
5024A.65G
100
AcDbLine
 10
-6.825212796003277
 20
0.9158932375721349
 30
0.0
 11
-6.815218204034447
 21
0.9162011316357308
 31
0.0
1001
REVIT
1002
{
1070
     2
1000
-2001350
1002
}
  0
LINE
  5
3A6
330
294
100
AcDbEntity
  8
5024A.65G
100
AcDbLine
 10
-6.815218204034447
 20
0.9162011316357308
 30
0.0
 11
-6.812519174769882
 21
0.9162157015782383
 31
0.0
1001
REVIT
1002
{
1070
     2
1000
-2001350
1002
}
  0
LINE
  5
3A7
330
294
100
AcDbEntity
  8
5024A.65G
100
AcDbLine
 10
7.061719855260895
 20
0.0
 30
0.0
 11
4.076320850062708
 21
0.0
 31
0.0
1001
REVIT
1002
{
1070
     2
1000
-2001350
1002
}
  0
LINE
  5
3A8
330
294
100
AcDbEntity
  8
5024A.65G
100
AcDbLine
 10
4.076320850062688
 20
0.0
 30
0.0
 11
-4.076320850062688
 21
0.0
 31
0.0
1001
REVIT
1002
{
1070
     2
1000
-2001350
1002
}
  0
LINE
  5
3A9
330
294
100
AcDbEntity
  8
5024A.65G
100
AcDbLine
 10
-4.076320850062725
 20
0.0
 30
0.0
 11
-7.061719855260855
 21
0.0
 31
0.0
1001
REVIT
1002
{
1070
     2
1000
-2001350
1002
}
  0
ENDBLK
  5
296
330
294
100
AcDbEntity
  8
0
100
AcDbBlockEnd
  0
BLOCK
  5
3AC
330
3AB
100
AcDbEntity
  8
0
100
AcDbBlockBegin
  2
AMSTD_Transitional_5024A.65G_Side View
 70
     0
 10
0.0
 20
0.0
 30
0.0
  3
AMSTD_Transitional_5024A.65G_Side View
  1

  0
LINE
  5
3AE
330
3AB
100
AcDbEntity
  8
5024A.65G
100
AcDbLine
 10
0.6350473311162049
 20
1.166215701578238
 30
0.0
 11
0.6350473311162049
 21
0.9162157015782383
 31
0.0
1001
REVIT
1002
{
1070
     2
1000
-2001350
1002
}
  0
LINE
  5
3AF
330
3AB
100
AcDbEntity
  8
5024A.65G
100
AcDbLine
 10
18.46750972288171
 20
0.9162157015782383
 30
0.0
 11
18.46750972288171
 21
1.166215701578238
 31
0.0
1001
REVIT
1002
{
1070
     2
1000
-2001350
1002
}
  0
LWPOLYLINE
  5
3B0
330
3AB
100
AcDbEntity
  8
5024A.65G
100
AcDbPolyline
 90
       15
 70
   128
 43
0.0
 10
0.690285682485154
 20
1.863817442866363
 10
0.6919558945794293
 20
1.8730993932799
 10
0.6939959496991648
 20
1.882307128453533
 10
0.6964025841913682
 20
1.891425917975183
 10
0.6991719479542198
 20
1.900441173726868
 10
0.7022996105964836
 20
1.909338473222526
 10
0.7057805685251211
 20
1.918103582680963
 10
0.7096092529500169
 20
1.926722479796822
 10
0.7137795387928279
 20
1.935181376173332
 10
0.7182847544858149
 20
1.943466739380752
 10
0.7231176926449479
 20
1.951565314605403
 10
0.7282706216001316
 20
1.959464145854525
 10
0.7337352977642695
 20
1.967150596683119
 10
0.7395029788212355
 20
1.974612370409538
 10
0.7455644377117139
 20
1.98183752978759
1001
REVIT
1002
{
1070
     2
1000
-2001350
1002
}
  0
LWPOLYLINE
  5
3B1
330
3AB
100
AcDbEntity
  8
5024A.65G
100
AcDbPolyline
 90
        6
 70
   128
 43
0.0
 10
0.7519099773945257
 20
1.988814516103559
 10
0.758529446359816
 20
1.995532167667668
 10
0.7654122548693181
 20
2.001979737670453
 10
0.7725473918976747
 20
2.008146911375305
 10
0.7799234427477231
 20
2.014023822619897
 10
0.7875286073115646
 20
2.019601069599914
1001
REVIT
1002
{
1070
     2
1000
-2001350
1002
}
  0
LWPOLYLINE
  5
3B2
330
3AB
100
AcDbEntity
  8
5024A.65G
100
AcDbPolyline
 90
        6
 70
   128
 43
0.0
 10
0.7953507189482636
 20
2.02486972990993
 10
0.8033772639478158
 20
2.029821374817373
 10
0.8115954015504627
 20
2.034448082746685
 10
0.8199919844891567
 20
2.03874245195216
 10
0.8285535800223655
 20
2.042697612359155
 10
0.8372664914236054
 20
2.046307236554731
1001
REVIT
1002
{
1070
     2
1000
-2001350
1002
}
  0
LWPOLYLINE
  5
3B3
330
3AB
100
AcDbEntity
  8
5024A.65G
100
AcDbPolyline
 90
        6
 70
   128
 43
0.0
 10
0.8461167798933004
 20
2.049565549910198
 10
0.8550902868578589
 20
2.052467339819251
 10
0.8641726566203828
 20
2.055007964037059
 10
0.8733493593267169
 20
2.057183358106833
 10
0.8826057142101291
 20
2.058990041862124
 10
0.8919269130773841
 20
2.060425124994331
1001
REVIT
1002
{
1070
     2
1000
-2001350
1002
}
  0
LWPOLYLINE
  5
3B4
330
3AB
100
AcDbEntity
  8
5024A.65G
100
AcDbPolyline
 90
        3
 70
   128
 43
0.0
 10
0.9012980439987146
 20
2.061486311676574
 10
0.9107041151637105
 20
2.062171904236549
 10
0.9201300788650286
 20
2.062480805872397
1001
REVIT
1002
{
1070
     2
1000
-2001350
1002
}
  0
LWPOLYLINE
  5
3B5
330
3AB
100
AcDbEntity
  8
5024A.65G
100
AcDbPolyline
 90
        5
 70
   128
 43
0.0
 10
0.6350473311161977
 20
1.166215701578238
 10
0.6385929414611553
 20
1.343472580793459
 10
0.6492241002758377
 20
1.520445886814727
 10
0.6669237999739864
 20
1.696852500104689
 10
0.690285682485154
 20
1.863817442866363
1001
REVIT
1002
{
1070
     2
1000
-2001350
1002
}
  0
LWPOLYLINE
  5
3B6
330
3AB
100
AcDbEntity
  8
5024A.65G
100
AcDbPolyline
 90
       37
 70
   128
 43
0.0
 10
18.17941844578696
 20
2.062499999999985
 10
18.18884758355124
 20
2.062311392096312
 10
18.19826163670655
 20
2.06174587011769
 10
18.20764554477606
 20
2.060804338778659
 10
18.21698429550863
 20
2.059488304328503
 10
18.22626294889528
 20
2.057799872141607
 10
18.23546666106991
 20
2.055741743349294
 10
18.24458070805641
 20
2.053317210518578
 10
18.25359050932382
 20
2.050530152384794
 10
18.26248165111209
 20
2.047385027646406
 10
18.27123990949105
 20
2.043886867832071
 10
18.27985127311562
 20
2.040041269251268
 10
18.288301965641
 20
2.035854384041364
 10
18.29657846776185
 20
2.031332910325545
 10
18.30466753884034
 20
2.02648408149723
 10
18.31255623808833
 20
2.021315654648176
 10
18.32023194526986
 20
2.015835898158812
 10
18.32768238089082
 20
2.010053578470554
 10
18.33489562584357
 20
2.003977946061418
 10
18.34186014047492
 20
1.997618720647196
 10
18.34856478304715
 20
1.99098607563198
 10
18.35499882756239
 20
1.984090621832912
 10
18.36115198092195
 20
1.976943390505113
 10
18.36701439939304
 20
1.96955581569405
 10
18.3725767043567
 20
1.961939715943486
 10
18.37782999731154
 20
1.954107275388338
 10
18.38276587410948
 20
1.946071024262671
 10
18.38737643840058
 20
1.937843818853977
 10
18.3916543142655
 20
1.929438820935857
 10
18.39559265801543
 20
1.92086947671202
 10
18.3991851691405
 20
1.912149495305186
 10
18.40242610038927
 20
1.903292826825442
 10
18.40531026696311
 20
1.894313640053042
 10
18.40783305481075
 20
1.88522629977136
 10
18.4099904280098
 20
1.876045343786323
 10
18.41177893522336
 20
1.866785459668996
 10
18.41227137151276
 20
1.863817442866363
1001
REVIT
1002
{
1070
     2
1000
-2001350
1002
}
  0
LWPOLYLINE
  5
3B7
330
3AB
100
AcDbEntity
  8
5024A.65G
100
AcDbPolyline
 90
       24
 70
   128
 43
0.0
 10
16.27303057528128
 20
2.062499999999985
 10
16.42473393421593
 20
2.062499999999985
 10
16.5714924795087
 20
2.062499999999985
 10
16.71307142879392
 20
2.062499999999985
 10
16.84924428595463
 20
2.062499999999985
 10
16.97979320346803
 20
2.062499999999985
 10
17.10450933091506
 20
2.062499999999985
 10
17.22319314909648
 20
2.062499999999985
 10
17.33565478922107
 20
2.062499999999985
 10
17.44171433665516
 20
2.062499999999985
 10
17.5412021187477
 20
2.062499999999985
 10
17.63395897627026
 20
2.062499999999985
 10
17.71983651803789
 20
2.062499999999985
 10
17.79869735830331
 20
2.062499999999985
 10
17.87041533654485
 20
2.062499999999985
 10
17.93487571929635
 20
2.062499999999985
 10
17.99197538369622
 20
2.062499999999985
 10
18.04162298246202
 20
2.062499999999985
 10
18.08373909002666
 20
2.062499999999985
 10
18.11825632960233
 20
2.062499999999985
 10
18.14511948096899
 20
2.062499999999985
 10
18.16428556881494
 20
2.062499999999985
 10
18.17572393148819
 20
2.062499999999985
 10
18.17941844578696
 20
2.062499999999985
1001
REVIT
1002
{
1070
     2
1000
-2001350
1002
}
  0
LWPOLYLINE
  5
3B8
330
3AB
100
AcDbEntity
  8
5024A.65G
100
AcDbPolyline
 90
       24
 70
   128
 43
0.0
 10
18.17941844578696
 20
2.062499999999985
 10
18.17554247851311
 20
2.062499999999985
 10
18.1639207774124
 20
2.062499999999985
 10
18.1445719347274
 20
2.062499999999985
 10
18.11752690447889
 20
2.062499999999985
 10
18.08282895294596
 20
2.062499999999985
 10
18.04053358944923
 20
2.062499999999985
 10
17.99070847754777
 20
2.062499999999985
 10
17.93343332679183
 20
2.062499999999985
 10
17.86879976520457
 20
2.062499999999985
 10
17.79691119269677
 20
2.062499999999985
 10
17.71788261564903
 20
2.062499999999985
 10
17.6318404629261
 20
2.062499999999985
 10
17.53892238361767
 20
2.062499999999985
 10
17.43927702682914
 20
2.062499999999985
 10
17.33306380387485
 20
2.062499999999985
 10
17.2204526332539
 20
2.062499999999985
 10
17.10162366881686
 20
2.062499999999985
 10
16.97676701155799
 20
2.062499999999985
 10
16.84608240549426
 20
2.062499999999985
 10
16.70977891811745
 20
2.062499999999985
 10
16.56807460593085
 20
2.062499999999985
 10
16.42119616560531
 20
2.062499999999985
 10
16.27303057528128
 20
2.062499999999985
1001
REVIT
1002
{
1070
     2
1000
-2001350
1002
}
  0
LWPOLYLINE
  5
3B9
330
3AB
100
AcDbEntity
  8
5024A.65G
100
AcDbPolyline
 90
        5
 70
   128
 43
0.0
 10
18.41227137151276
 20
1.863817442866363
 10
18.43666657511867
 20
1.688211501557802
 10
18.45401990049156
 20
1.511770478322439
 10
18.46430358601269
 20
1.334776641158711
 10
18.46750972288171
 20
1.166215701578238
1001
REVIT
1002
{
1070
     2
1000
-2001350
1002
}
  0
LWPOLYLINE
  5
3BA
330
3AB
100
AcDbEntity
  8
5024A.65G
100
AcDbPolyline
 90
       31
 70
   128
 43
0.0
 10
16.27303057528128
 20
2.062499999999985
 10
15.82764966647227
 20
2.062499999999985
 10
15.36959149340551
 20
2.062499999999985
 10
14.89958885144404
 20
2.062499999999985
 10
14.41839364455311
 20
2.062499999999985
 10
13.92677568241425
 20
2.062499999999985
 10
13.42552144889397
 20
2.062499999999985
 10
12.91543284383737
 20
2.062499999999985
 10
12.39732590019945
 20
2.062499999999985
 10
11.87202947856643
 20
2.062499999999985
 10
11.34038394115567
 20
2.062499999999985
 10
10.80323980741537
 20
2.062499999999985
 10
10.26145639337486
 20
2.062499999999985
 10
9.715900436922332
 20
2.062499999999985
 10
9.167444711209014
 20
2.062499999999985
 10
8.616966628398422
 20
2.062499999999985
 10
8.065346835993985
 20
2.062499999999985
 10
7.513467807990934
 20
2.062499999999985
 10
6.962212433106166
 20
2.062499999999985
 10
6.412462602344618
 20
2.062499999999985
 10
5.865097798161805
 20
2.062499999999985
 10
5.320993687479486
 20
2.062499999999985
 10
4.781020720805393
 20
2.062499999999985
 10
4.246042739698125
 20
2.062499999999985
 10
3.716915594804895
 20
2.062499999999985
 10
3.194485776683102
 20
2.062499999999985
 10
2.67958906159599
 20
2.062499999999985
 10
2.173049174448919
 20
2.062499999999985
 10
1.675676471005253
 20
2.062499999999985
 10
1.188266641489974
 20
2.062499999999985
 10
1.159287286624575
 20
2.062499999999985
1001
REVIT
1002
{
1070
     2
1000
-2001350
1002
}
  0
LWPOLYLINE
  5
3BB
330
3AB
100
AcDbEntity
  8
5024A.65G
100
AcDbPolyline
 90
       28
 70
   128
 43
0.0
 10
1.159287286624575
 20
2.062499999999985
 10
1.143353008869418
 20
2.062499999999985
 10
1.127805390471145
 20
2.062499999999985
 10
1.112669304302549
 20
2.062499999999985
 10
1.097968964872642
 20
2.062499999999985
 10
1.083727889588608
 20
2.062499999999985
 10
1.069968861132963
 20
2.062499999999985
 10
1.056713891016137
 20
2.062499999999985
 10
1.043984184362741
 20
2.062499999999985
 10
1.03180010598789
 20
2.062499999999985
 10
1.020181147817858
 20
2.062499999999985
 10
1.009145897707135
 20
2.062499999999985
 10
0.9987120097018404
 20
2.062499999999985
 10
0.9888961757969951
 20
2.062499999999985
 10
0.9797140992329289
 20
2.062499999999985
 10
0.9711804693733938
 20
2.062499999999985
 10
0.9633089382057562
 20
2.062499999999985
 10
0.9561120985007249
 20
2.062499999999985
 10
0.9496014636665677
 20
2.062499999999985
 10
0.9437874493301663
 20
2.062499999999985
 10
0.938679356674207
 20
2.062499999999985
 10
0.9342853575572647
 20
2.062499999999985
 10
0.9306124814405833
 20
2.062499999999985
 10
0.927666604142459
 20
2.062499999999985
 10
0.9254524384381426
 20
2.062499999999985
 10
0.9239735265204274
 20
2.062499999999985
 10
0.9232322343328931
 20
2.062499999999985
 10
0.9231386082109622
 20
2.062499999999985
1001
REVIT
1002
{
1070
     2
1000
-2001350
1002
}
  0
LINE
  5
3BC
330
3AB
100
AcDbEntity
  8
5024A.65G
100
AcDbLine
 10
16.44777920464663
 20
0.9162157015782383
 30
0.0
 11
18.46750972288169
 21
0.9162157015782383
 31
0.0
1001
REVIT
1002
{
1070
     2
1000
-2001350
1002
}
  0
LINE
  5
3BD
330
3AB
100
AcDbEntity
  8
5024A.65G
100
AcDbLine
 10
1.987404095404436
 20
0.9162157015782383
 30
0.0
 11
16.44777920464663
 21
0.9162157015782383
 31
0.0
1001
REVIT
1002
{
1070
     2
1000
-2001350
1002
}
  0
SPLINE
  5
3BE
330
3AB
100
AcDbEntity
  8
5024A.65G
100
AcDbSpline
210
0.0
220
0.0
230
1.0
 70
     8
 71
     3
 72
    18
 73
    14
 74
     0
 42
0.000000001
 43
0.0000000001
 40
0.0
 40
0.0
 40
0.0
 40
0.0
 40
0.1666666666666666
 40
0.3333333333333333
 40
0.4166666666666666
 40
0.5
 40
0.5833333333333333
 40
0.625
 40
0.6666666666666666
 40
0.7083333333333333
 40
0.75
 40
0.8333333333333333
 40
1.0
 40
1.0
 40
1.0
 40
1.0
 10
0.6350473311162049
 20
0.9162157015782383
 30
0.0
 10
0.6350473311162049
 20
0.8815459636081826
 30
0.0
 10
0.6415754602855728
 20
0.8130062259237007
 30
0.0
 10
0.6663168664587005
 20
0.72848532525596
 30
0.0
 10
0.6965362182868589
 20
0.6630829011466304
 30
0.0
 10
0.7245915853606988
 20
0.6156129575716563
 30
0.0
 10
0.7526602377282146
 20
0.5776243881885819
 30
0.0
 10
0.7779638619349072
 20
0.5482971972862316
 30
0.0
 10
0.7984861768415854
 20
0.527313346247766
 30
0.0
 10
0.8205427365097435
 20
0.5070508582310112
 30
0.0
 10
0.8519361653400565
 20
0.4807732986050155
 30
0.0
 10
0.9123357273613592
 20
0.4388899120472303
 30
0.0
 10
0.9736862078340635
 20
0.4117087482641395
 30
0.0
 10
1.018481330145654
 20
0.3967948762415787
 30
0.0
1001
REVIT
1002
{
1070
     2
1000
-2001350
1002
}
  0
SPLINE
  5
3BF
330
3AB
100
AcDbEntity
  8
5024A.65G
100
AcDbSpline
210
0.0
220
0.0
230
1.0
 70
     8
 71
     3
 72
    13
 73
     9
 74
     0
 42
0.000000001
 43
0.0000000001
 40
0.0
 40
0.0
 40
0.0
 40
0.0
 40
0.1666666666666666
 40
0.3333333333333333
 40
0.5
 40
0.6666666666666666
 40
0.8333333333333332
 40
1.0
 40
1.0
 40
1.0
 40
1.0
 10
1.018481330145654
 20
0.3967948762415787
 30
0.0
 10
1.060370074520051
 20
0.3840100521392031
 30
0.0
 10
1.144574158159393
 20
0.3686456966859382
 30
0.0
 10
1.274787568509204
 20
0.3759561692147386
 30
0.0
 10
1.401069515092267
 20
0.4144002650895687
 30
0.0
 10
1.517206802450431
 20
0.483727793362391
 30
0.0
 10
1.61615632289083
 20
0.5834078019212044
 30
0.0
 10
1.662766541669817
 20
0.6655194206207185
 30
0.0
 10
1.68183575170417
 20
0.71087119215197
 30
0.0
1001
REVIT
1002
{
1070
     2
1000
-2001350
1002
}
  0
SPLINE
  5
3C0
330
3AB
100
AcDbEntity
  8
5024A.65G
100
AcDbSpline
210
0.0
220
0.0
230
1.0
 70
     8
 71
     3
 72
    14
 73
    10
 74
     0
 42
0.000000001
 43
0.0000000001
 40
0.0
 40
0.0
 40
0.0
 40
0.0
 40
0.2
 40
0.3
 40
0.4
 40
0.55
 40
0.625
 40
0.7
 40
1.0
 40
1.0
 40
1.0
 40
1.0
 10
1.68183575170417
 20
0.71087119215197
 30
0.0
 10
1.692601237725604
 20
0.7365902881205387
 30
0.0
 10
1.712167184298152
 20
0.7718078419670107
 30
0.0
 10
1.746436030262444
 20
0.8127898955910168
 30
0.0
 10
1.779926575770325
 20
0.8444718885124444
 30
0.0
 10
1.81484669836707
 20
0.8685919039077631
 30
0.0
 10
1.848832451863884
 20
0.8862044226358634
 30
0.0
 10
1.902287170081805
 20
0.9080155960157796
 30
0.0
 10
1.948902236654816
 20
0.9161578092480979
 30
0.0
 10
1.987404095404514
 20
0.9162157015782312
 30
0.0
1001
REVIT
1002
{
1070
     2
1000
-2001350
1002
}
  0
LINE
  5
3C1
330
3AB
100
AcDbEntity
  8
5024A.65G
100
AcDbLine
 10
18.56396712388123
 20
0.0
 30
0.0
 11
18.56396712388123
 21
0.6662157015782384
 31
0.0
1001
REVIT
1002
{
1070
     2
1000
-2001350
1002
}
  0
LINE
  5
3C2
330
3AB
100
AcDbEntity
  8
5024A.65G
100
AcDbLine
 10
-0.6249999999999929
 20
0.3143945909053016
 30
0.0
 11
-0.6249999999999929
 21
0.0
 31
0.0
1001
REVIT
1002
{
1070
     2
1000
-2001350
1002
}
  0
LWPOLYLINE
  5
3C3
330
3AB
100
AcDbEntity
  8
5024A.65G
100
AcDbPolyline
 90
       40
 70
   128
 43
0.0
 10
18.32396445742789
 20
0.9160157282434866
 10
18.33394579737353
 20
0.9154161281538932
 10
18.34389517570346
 20
0.9144178605417039
 10
18.35379667553479
 20
0.9130225224221462
 10
18.36363445657999
 20
0.9112323460385525
 10
18.37339278048802
 20
0.9090501952912433
 10
18.38305603602226
 20
0.9064795611559333
 10
18.39260876403526
 20
0.9035245560988514
 10
18.40203568220001
 20
0.9001899074977259
 10
18.4113217094584
 20
0.8964809500789598
 10
18.42045199014773
 20
0.8924036173832305
 10
18.4294119177666
 20
0.8879644322730584
 10
18.43818715834217
 20
0.8831704964976481
 10
18.44676367336145
 20
0.8780294793315945
 10
18.45512774222999
 20
0.8725496053056573
 10
18.46326598422183
 20
0.866739641049314
 10
18.47116537988585
 20
0.8606088812659677
 10
18.4788132918741
 20
0.8541671338634628
 10
18.48619748515887
 20
0.8474247042634672
 10
18.49330614660611
 20
0.8403923789150269
 10
18.50012790387395
 20
0.8330814080385664
 10
18.50665184360598
 20
0.8255034876278841
 10
18.51286752889032
 20
0.8176707407391035
 10
18.51876501595648
 20
0.8095956980963521
 10
18.5243348700832
 20
0.8012912780452694
 10
18.52956818069207
 20
0.7927707658864307
 10
18.53445657560247
 20
0.7840477926216707
 10
18.53899223442535
 20
0.7751363131474136
 10
18.54316790107417
 20
0.766050583929804
 10
18.54697689537304
 20
0.7568051401974074
 10
18.55041312374362
 20
0.7474147726879324
 10
18.55347108895353
 20
0.737894503986226
 10
18.55614589891079
 20
0.7282595644913315
 10
18.55843327449006
 20
0.7185253680510897
 10
18.56032955637834
 20
0.7087074873033004
 10
18.56183171092915
 20
0.6988216287627722
 10
18.56293733501564
 20
0.688883607694315
 10
18.56364465987513
 20
0.6789093228116343
 10
18.56395255393873
 20
0.6689147308428077
 10
18.56396712388123
 20
0.6662157015782384
1001
REVIT
1002
{
1070
     2
1000
-2001350
1002
}
  0
LINE
  5
3C4
330
3AB
100
AcDbEntity
  8
5024A.65G
100
AcDbLine
 10
2.047452370760254
 20
0.0
 30
0.0
 11
0.6637721670373154
 21
0.0
 31
0.0
1001
REVIT
1002
{
1070
     2
1000
-2001350
1002
}
  0
LINE
  5
3C5
330
3AB
100
AcDbEntity
  8
5024A.65G
100
AcDbLine
 10
0.6637721670373154
 20
0.0
 30
0.0
 11
0.0
 21
0.0
 31
0.0
1001
REVIT
1002
{
1070
     2
1000
-2001350
1002
}
  0
LINE
  5
3C6
330
3AB
100
AcDbEntity
  8
5024A.65G
100
AcDbLine
 10
0.0
 20
0.0
 30
0.0
 11
-0.6249999999999929
 21
0.0
 31
0.0
1001
REVIT
1002
{
1070
     2
1000
-2001350
1002
}
  0
LINE
  5
3C7
330
3AB
100
AcDbEntity
  8
5024A.65G
100
AcDbLine
 10
18.55913698112077
 20
0.0
 30
0.0
 11
16.57581868534111
 21
0.0
 31
0.0
1001
REVIT
1002
{
1070
     2
1000
-2001350
1002
}
  0
LINE
  5
3C8
330
3AB
100
AcDbEntity
  8
5024A.65G
100
AcDbLine
 10
16.57581868534107
 20
0.0
 30
0.0
 11
2.047452370760332
 21
0.0
 31
0.0
1001
REVIT
1002
{
1070
     2
1000
-2001350
1002
}
  0
LINE
  5
3C9
330
3AB
100
AcDbEntity
  8
5024A.65G
100
AcDbLine
 10
0.6637721670373154
 20
0.0
 30
0.0
 11
0.6637721670373154
 21
0.6662157015782384
 31
0.0
1001
REVIT
1002
{
1070
     2
1000
-2001350
1002
}
  0
LINE
  5
3CA
330
3AB
100
AcDbEntity
  8
5024A.65G
100
AcDbLine
 10
2.047452370760247
 20
0.0
 30
0.0
 11
2.047452370760247
 21
0.6662157015782384
 31
0.0
1001
REVIT
1002
{
1070
     2
1000
-2001350
1002
}
  0
LINE
  5
3CB
330
3AB
100
AcDbEntity
  8
5024A.65G
100
AcDbLine
 10
-0.6249999999999929
 20
0.3143945909053016
 30
0.0
 11
-0.0000000000000071
 21
0.3143945909053016
 31
0.0
1001
REVIT
1002
{
1070
     2
1000
-2001350
1002
}
  0
LINE
  5
3CC
330
3AB
100
AcDbEntity
  8
5024A.65G
100
AcDbLine
 10
0.0
 20
0.3143945909053016
 30
0.0
 11
0.6637721670373154
 21
0.3143945909053016
 31
0.0
1001
REVIT
1002
{
1070
     2
1000
-2001350
1002
}
  0
SPLINE
  5
3CD
330
3AB
100
AcDbEntity
  8
5024A.65G
100
AcDbSpline
210
0.0
220
0.0
230
1.0
 70
     8
 71
     3
 72
     9
 73
     5
 74
     0
 42
0.000000001
 43
0.0000000001
 40
-0.347696626422553
 40
-0.347696626422553
 40
-0.347696626422553
 40
-0.347696626422553
 40
-0.3333333333333333
 40
-0.319005381539158
 40
-0.319005381539158
 40
-0.319005381539158
 40
-0.319005381539158
 10
2.167599858762315
 20
0.8798469435398601
 30
0.0
 10
2.169206476804646
 20
0.8808235338080621
 30
0.0
 10
2.172436195671664
 20
0.8827442441289718
 30
0.0
 10
2.175714581715205
 20
0.8845669660119312
 30
0.0
 10
2.177362586962367
 20
0.8854559942703872
 30
0.0
1001
REVIT
1002
{
1070
     2
1000
-2001350
1002
}
  0
SPLINE
  5
3CE
330
3AB
100
AcDbEntity
  8
5024A.65G
100
AcDbSpline
210
0.0
220
0.0
230
1.0
 70
     8
 71
     3
 72
     8
 73
     4
 74
     0
 42
0.000000001
 43
0.0000000001
 40
0.0
 40
0.0
 40
0.0
 40
0.0
 40
0.1482749200828115
 40
0.1482749200828115
 40
0.1482749200828115
 40
0.1482749200828115
 10
0.6637721670373154
 20
0.6662157015782313
 30
0.0
 10
0.6637721670373083
 20
0.6856248432300518
 30
0.0
 10
0.6660470371902321
 20
0.7050324419801939
 30
0.0
 10
0.6705234832874823
 20
0.7239179737473834
 30
0.0
1001
REVIT
1002
{
1070
     2
1000
-2001350
1002
}
  0
SPLINE
  5
3CF
330
3AB
100
AcDbEntity
  8
5024A.65G
100
AcDbSpline
210
0.0
220
0.0
230
1.0
 70
     8
 71
     3
 72
     8
 73
     4
 74
     0
 42
0.000000001
 43
0.0000000001
 40
0.1565326639767464
 40
0.1565326639767464
 40
0.1565326639767464
 40
0.1565326639767464
 40
0.1666666666666666
 40
0.1666666666666666
 40
0.1666666666666666
 40
0.1666666666666666
 10
2.054973232002126
 20
0.7270683517057464
 30
0.0
 10
2.05529522817028
 20
0.7283550182309782
 30
0.0
 10
2.055627775113677
 20
0.7296391107409974
 30
0.0
 10
2.05597091418798
 20
0.7309204628538595
 30
0.0
1001
REVIT
1002
{
1070
     2
1000
-2001350
1002
}
  0
SPLINE
  5
3D0
330
3AB
100
AcDbEntity
  8
5024A.65G
100
AcDbSpline
210
0.0
220
0.0
230
1.0
 70
     8
 71
     3
 72
     8
 73
     4
 74
     0
 42
0.000000001
 43
0.0000000001
 40
0.3103442030185168
 40
0.3103442030185168
 40
0.3103442030185168
 40
0.3103442030185168
 40
0.3333333333333333
 40
0.3333333333333333
 40
0.3333333333333333
 40
0.3333333333333333
 10
2.076583779959349
 20
0.7833175452033814
 30
0.0
 10
2.077989922926043
 20
0.7859762985449664
 30
0.0
 10
2.079444081664654
 20
0.7886096091907789
 30
0.0
 10
2.080946019814135
 20
0.7912157015782313
 30
0.0
1001
REVIT
1002
{
1070
     2
1000
-2001350
1002
}
  0
SPLINE
  5
3D1
330
3AB
100
AcDbEntity
  8
5024A.65G
100
AcDbSpline
210
0.0
220
0.0
230
1.0
 70
     8
 71
     3
 72
     9
 73
     5
 74
     0
 42
0.000000001
 43
0.0000000001
 40
0.4597836360916116
 40
0.4597836360916116
 40
0.4597836360916116
 40
0.4597836360916116
 40
0.5
 40
0.5381829663723061
 40
0.5381829663723061
 40
0.5381829663723061
 40
0.5381829663723061
 10
2.109925767504876
 20
0.8314799247113668
 30
0.0
 10
2.11339895373117
 20
0.8354299267620888
 30
0.0
 10
2.120361869825089
 20
0.8429150422261741
 30
0.0
 10
2.127831035031633
 20
0.8499563482531158
 30
0.0
 10
2.131574948464489
 20
0.8532730415672205
 30
0.0
1001
REVIT
1002
{
1070
     2
1000
-2001350
1002
}
  0
SPLINE
  5
3D2
330
3AB
100
AcDbEntity
  8
5024A.65G
100
AcDbSpline
210
0.0
220
0.0
230
1.0
 70
     8
 71
     3
 72
     9
 73
     5
 74
     0
 42
0.000000001
 43
0.0000000001
 40
0.6383933983816826
 40
0.6383933983816826
 40
0.6383933983816826
 40
0.6383933983816826
 40
0.6666666666666666
 40
0.6947985266167772
 40
0.6947985266167772
 40
0.6947985266167772
 40
0.6947985266167772
 10
2.162992502295381
 20
0.8769587627628965
 30
0.0
 10
2.166107651938801
 20
0.8789497605961074
 30
0.0
 10
2.17240330213508
 20
0.8827778083811068
 30
0.0
 10
2.178831428676765
 20
0.886345750701551
 30
0.0
 10
2.182087504292908
 20
0.8880430661446823
 30
0.0
1001
REVIT
1002
{
1070
     2
1000
-2001350
1002
}
  0
SPLINE
  5
3D3
330
3AB
100
AcDbEntity
  8
5024A.65G
100
AcDbSpline
210
0.0
220
0.0
230
1.0
 70
     8
 71
     3
 72
     9
 73
     5
 74
     0
 42
0.000000001
 43
0.0000000001
 40
0.7998635442583292
 40
0.7998635442583292
 40
0.7998635442583292
 40
0.7998635442583292
 40
0.8333333333333333
 40
0.8677205055869066
 40
0.8677205055869066
 40
0.8677205055869066
 40
0.8677205055869066
 10
2.220192355774962
 20
0.9039635675270787
 30
0.0
 10
2.224353148303819
 20
0.9053184002156982
 30
0.0
 10
2.232803706604158
 20
0.9079961066466211
 30
0.0
 10
2.241493280215706
 20
0.9095938183837191
 30
0.0
 10
2.245933971024065
 20
0.910233795666457
 30
0.0
1001
REVIT
1002
{
1070
     2
1000
-2001350
1002
}
  0
SPLINE
  5
3D4
330
3AB
100
AcDbEntity
  8
5024A.65G
100
AcDbSpline
210
0.0
220
0.0
230
1.0
 70
     8
 71
     3
 72
    17
 73
    13
 74
     0
 42
0.000000001
 43
0.0000000001
 40
0.0
 40
0.0
 40
0.0
 40
0.0
 40
0.1428571428571428
 40
0.2857142857142857
 40
0.3571428571428571
 40
0.4285714285714286
 40
0.5
 40
0.5714285714285714
 40
0.6428571428571428
 40
0.7142857142857144
 40
0.8571428571428571
 40
1.0
 40
1.0
 40
1.0
 40
1.0
 10
2.047452370760247
 20
0.6662157015782242
 30
0.0
 10
2.047452370760247
 20
0.6869062819673602
 30
0.0
 10
2.052585243742598
 20
0.7277678547183655
 30
0.0
 10
2.070829731187373
 20
0.7749363145900432
 30
0.0
 10
2.091047746093437
 20
0.8082577357217815
 30
0.0
 10
2.108673767282297
 20
0.830931847464619
 30
0.0
 10
2.128308509988173
 20
0.8510075205481157
 30
0.0
 10
2.149665698781205
 20
0.8684723633576041
 30
0.0
 10
2.172370181182664
 20
0.8832296410432434
 30
0.0
 10
2.204116828571443
 20
0.899316445931042
 30
0.0
 10
2.245805937980101
 20
0.9126673311599518
 30
0.0
 10
2.280324242043768
 20
0.9162157015782383
 30
0.0
 10
2.29745237076024
 20
0.9162157015782383
 30
0.0
1001
REVIT
1002
{
1070
     2
1000
-2001350
1002
}
  0
ENDBLK
  5
3AD
330
3AB
100
AcDbEntity
  8
0
100
AcDbBlockEnd
  0
ENDSEC
  0
SECTION
  2
ENTITIES
  0
INSERT
  5
293
330
70
100
AcDbEntity
  8
5024A.65G
100
AcDbBlockReference
  2
AMSTD_Transitional_5024A.65G_Plan VIew
 10
0.0000000000007396
 20
-0.0000000000009939
 30
0.0
  0
INSERT
  5
3AA
330
70
100
AcDbEntity
  8
5024A.65G
100
AcDbBlockReference
  2
AMSTD_Transitional_5024A.65G_Front View
 10
0.0000000000007399
 20
-36.0010274650171
 30
0.0
  0
INSERT
  5
3D5
330
70
100
AcDbEntity
  8
5024A.65G
100
AcDbBlockReference
  2
AMSTD_Transitional_5024A.65G_Side View
 10
-46.54464912883014
 20
-36.0010274650171
 30
0.0
  0
ENDSEC
  0
SECTION
  2
OBJECTS
  0
DICTIONARY
  5
C
330
0
100
AcDbDictionary
281
     1
  3
ACAD_BACKGROUND
350
276
  3
ACAD_CIP_PREVIOUS_PRODUCT_INFO
350
79
  3
ACAD_COLOR
350
63
  3
ACAD_DETAILVIEWSTYLE
350
6A
  3
ACAD_GROUP
350
D
  3
ACAD_IMAGE_VARS
350
7A
  3
ACAD_LAYOUT
350
62
  3
ACAD_MATERIAL
350
10
  3
ACAD_MLEADERSTYLE
350
66
  3
ACAD_MLINESTYLE
350
5F
  3
ACAD_PLOTSETTINGS
350
61
  3
ACAD_PLOTSTYLENAME
350
E
  3
ACAD_SCALELIST
350
42
  3
ACAD_SECTIONVIEWSTYLE
350
68
  3
ACAD_TABLESTYLE
350
64
  3
ACAD_VISUALSTYLE
350
29
  3
ACDB_RECOMPOSE_DATA
350
3DB
  3
AcDbVariableDictionary
350
D1
  3
REVIT_DICTIONARY
350
C7
  0
DICTIONARY
  5
CA
330
70
100
AcDbDictionary
280
     1
281
     1
  3
ACAD_SORTENTS
360
CB
  0
DICTIONARY
  5
276
102
{ACAD_REACTORS
330
C
102
}
330
C
100
AcDbDictionary
281
     1
  0
XRECORD
  5
79
102
{ACAD_REACTORS
330
C
102
}
330
C
100
AcDbXrecord
280
     1
300
ACD
300
2014
300
86063ACD_2014_0F
  0
DICTIONARY
  5
63
102
{ACAD_REACTORS
330
C
102
}
330
C
100
AcDbDictionary
281
     1
  0
DICTIONARY
  5
6A
102
{ACAD_REACTORS
330
C
102
}
330
C
100
AcDbDictionary
281
     1
  3
Imperial24
350
6B
  0
DICTIONARY
  5
D
102
{ACAD_REACTORS
330
C
102
}
330
C
100
AcDbDictionary
281
     1
  0
RASTERVARIABLES
  5
7A
102
{ACAD_REACTORS
330
C
102
}
330
C
100
AcDbRasterVariables
 90
        0
 70
     0
 71
     1
 72
     5
  0
DICTIONARY
  5
62
102
{ACAD_REACTORS
330
C
102
}
330
C
100
AcDbDictionary
281
     1
  3
Layout1
350
6F
  3
Layout2
350
77
  3
Model
350
73
  0
DICTIONARY
  5
10
102
{ACAD_REACTORS
330
C
102
}
330
C
100
AcDbDictionary
281
     1
  3
ByBlock
350
19
  3
ByLayer
350
11
  3
Global
350
21
  0
DICTIONARY
  5
66
102
{ACAD_REACTORS
330
C
102
}
330
C
100
AcDbDictionary
281
     1
  3
Standard
350
67
  0
DICTIONARY
  5
5F
102
{ACAD_REACTORS
330
C
102
}
330
C
100
AcDbDictionary
281
     1
  3
Standard
350
60
  0
DICTIONARY
  5
61
102
{ACAD_REACTORS
330
C
102
}
330
C
100
AcDbDictionary
281
     1
  0
ACDBDICTIONARYWDFLT
  5
E
102
{ACAD_REACTORS
330
C
102
}
330
C
100
AcDbDictionary
281
     1
  3
Normal
350
F
100
AcDbDictionaryWithDefault
340
F
  0
DICTIONARY
  5
42
102
{ACAD_REACTORS
330
C
102
}
330
C
100
AcDbDictionary
281
     1
  3
A0
350
43
  3
A1
350
44
  3
A2
350
45
  3
A3
350
46
  3
A4
350
47
  3
A5
350
48
  3
A6
350
49
  3
A7
350
4A
  3
A8
350
4B
  3
A9
350
4C
  3
B0
350
4D
  3
B1
350
4E
  3
B2
350
4F
  3
B3
350
50
  3
B4
350
51
  3
B5
350
52
  3
B6
350
53
  0
DICTIONARY
  5
68
102
{ACAD_REACTORS
330
C
102
}
330
C
100
AcDbDictionary
281
     1
  3
Imperial24
350
69
  0
DICTIONARY
  5
64
102
{ACAD_REACTORS
330
C
102
}
330
C
100
AcDbDictionary
281
     1
  3
Standard
350
65
  0
DICTIONARY
  5
29
102
{ACAD_REACTORS
330
C
102
}
330
C
100
AcDbDictionary
281
     1
  3
2dWireframe
350
2F
  3
Basic
350
2E
  3
Brighten
350
35
  3
ColorChange
350
39
  3
Conceptual
350
32
  3
Dim
350
34
  3
EdgeColorOff
350
41
  3
Facepattern
350
38
  3
Flat
350
2A
  3
FlatWithEdges
350
2B
  3
Gouraud
350
2C
  3
GouraudWithEdges
350
2D
  3
Hidden
350
31
  3
JitterOff
350
3F
  3
Linepattern
350
37
  3
OverhangOff
350
40
  3
Realistic
350
33
  3
Shaded
350
3E
  3
Shaded with edges
350
3D
  3
Shades of Gray
350
3A
  3
Sketchy
350
3B
  3
Thicken
350
36
  3
Wireframe
350
30
  3
X-Ray
350
3C
  0
XRECORD
  5
3DB
102
{ACAD_REACTORS
330
C
102
}
330
C
100
AcDbXrecord
280
     1
 90
        1
330
65
  0
DICTIONARY
  5
D1
102
{ACAD_REACTORS
330
C
102
}
330
C
100
AcDbDictionary
281
     1
  3
CANNOSCALE
350
D6
  3
CMLEADERSTYLE
350
D3
  3
CTABLESTYLE
350
D2
  3
CVIEWDETAILSTYLE
350
D4
  3
CVIEWSECTIONSTYLE
350
D5
  0
DICTIONARY
  5
C7
102
{ACAD_REACTORS
330
C
102
}
330
C
100
AcDbDictionary
281
     1
  3
DRAWING_TOOL
350
C9
  3
REVIT_CATEGORY_MAPPING
350
C8
  0
SORTENTSTABLE
  5
CB
102
{ACAD_REACTORS
330
CA
102
}
330
CA
100
AcDbSortentsTable
330
70
  0
ACDBDETAILVIEWSTYLE
  5
6B
102
{ACAD_XDICTIONARY
360
CE
102
}
102
{ACAD_REACTORS
330
6A
102
}
330
6A
100
AcDbModelDocViewStyle
 70
     0
  3
Imperial24
290
     0
100
AcDbDetailViewStyle
 70
     0
 71
     0
 90
        3
 71
     1
340
55
 62
   256
 40
0.24
340
0
 62
   256
 40
0.24
300

 40
0.36
280
     3
 71
     2
340
5D
 90
       25
 62
   256
 71
     3
340
55
 62
   256
 40
0.24
 90
        1
 40
0.75
 90
        1
300
%<\AcVar ViewType \f "%tc1">% %<\AcVar ViewDetailId>%\PSCALE %<\AcVar ViewScale \f "%sn">%
 71
     4
340
5D
 90
       25
 62
   256
340
5D
 90
       25
 62
   256
280
     0
  0
LAYOUT
  5
6F
102
{ACAD_REACTORS
330
62
102
}
330
62
100
AcDbPlotSettings
  1

  2

  4

  6

 40
0.0
 41
0.0
 42
0.0
 43
0.0
 44
0.0
 45
0.0
 46
0.0
 47
0.0
 48
0.0
 49
0.0
140
0.0
141
0.0
142
1.0
143
1.0
 70
   688
 72
     0
 73
     0
 74
     5
  7

 75
    16
147
1.0
 76
     0
 77
     2
 78
   300
148
0.0
149
0.0
100
AcDbLayout
  1
Layout1
 70
     1
 71
     1
 10
0.0
 20
0.0
 11
12.0
 21
9.0
 12
0.0
 22
0.0
 32
0.0
 14
1.000000000000000E+20
 24
1.000000000000000E+20
 34
1.000000000000000E+20
 15
-1.000000000000000E+20
 25
-1.000000000000000E+20
 35
-1.000000000000000E+20
146
0.0
 13
0.0
 23
0.0
 33
0.0
 16
1.0
 26
0.0
 36
0.0
 17
0.0
 27
1.0
 37
0.0
 76
     0
330
6C
  0
LAYOUT
  5
77
102
{ACAD_REACTORS
330
62
102
}
330
62
100
AcDbPlotSettings
  1

  2

  4

  6

 40
0.0
 41
0.0
 42
0.0
 43
0.0
 44
0.0
 45
0.0
 46
0.0
 47
0.0
 48
0.0
 49
0.0
140
0.0
141
0.0
142
1.0
143
1.0
 70
   688
 72
     0
 73
     0
 74
     5
  7

 75
    16
147
1.0
 76
     0
 77
     2
 78
   300
148
0.0
149
0.0
100
AcDbLayout
  1
Layout2
 70
     1
 71
     2
 10
0.0
 20
0.0
 11
12.0
 21
9.0
 12
0.0
 22
0.0
 32
0.0
 14
0.0
 24
0.0
 34
0.0
 15
0.0
 25
0.0
 35
0.0
146
0.0
 13
0.0
 23
0.0
 33
0.0
 16
1.0
 26
0.0
 36
0.0
 17
0.0
 27
1.0
 37
0.0
 76
     0
330
74
  0
LAYOUT
  5
73
102
{ACAD_REACTORS
330
62
102
}
330
62
100
AcDbPlotSettings
  1

  2

  4

  6

 40
0.0
 41
0.0
 42
0.0
 43
0.0
 44
0.0
 45
0.0
 46
0.0
 47
0.0
 48
0.0
 49
0.0
140
0.0
141
0.0
142
1.0
143
1.0
 70
  1712
 72
     0
 73
     0
 74
     0
  7

 75
     0
147
1.0
 76
     0
 77
     2
 78
   300
148
0.0
149
0.0
100
AcDbLayout
  1
Model
 70
     1
 71
     0
 10
0.0
 20
0.0
 11
12.0
 21
9.0
 12
0.0
 22
0.0
 32
0.0
 14
0.0
 24
0.0
 34
0.0
 15
0.0
 25
0.0
 35
0.0
146
0.0
 13
0.0
 23
0.0
 33
0.0
 16
1.0
 26
0.0
 36
0.0
 17
0.0
 27
1.0
 37
0.0
 76
     0
330
70
331
57
  0
MATERIAL
  5
19
102
{ACAD_XDICTIONARY
360
1A
102
}
102
{ACAD_REACTORS
330
10
102
}
330
10
100
AcDbMaterial
  1
ByBlock
 72
     0
 43
0.0208333333333333
 43
0.0
 43
0.0
 43
0.0
 43
0.0
 43
0.0208333333333333
 43
0.0
 43
0.0
 43
0.0
 43
0.0
 43
1.0
 43
0.0
 43
0.0
 43
0.0
 43
0.0
 43
1.0
 77
     0
 47
0.0208333333333333
 47
0.0
 47
0.0
 47
0.0
 47
0.0
 47
0.0208333333333333
 47
0.0
 47
0.0
 47
0.0
 47
0.0
 47
1.0
 47
0.0
 47
0.0
 47
0.0
 47
0.0
 47
1.0
171
     0
 49
0.0208333333333333
 49
0.0
 49
0.0
 49
0.0
 49
0.0
 49
0.0208333333333333
 49
0.0
 49
0.0
 49
0.0
 49
0.0
 49
1.0
 49
0.0
 49
0.0
 49
0.0
 49
0.0
 49
1.0
175
     0
142
0.0208333333333333
142
0.0
142
0.0
142
0.0
142
0.0
142
0.0208333333333333
142
0.0
142
0.0
142
0.0
142
0.0
142
1.0
142
0.0
142
0.0
142
0.0
142
0.0
142
1.0
179
     0
144
0.0208333333333333
144
0.0
144
0.0
144
0.0
144
0.0
144
0.0208333333333333
144
0.0
144
0.0
144
0.0
144
0.0
144
1.0
144
0.0
144
0.0
144
0.0
144
0.0
144
1.0
147
0.0208333333333333
147
0.0
147
0.0
147
0.0
147
0.0
147
0.0208333333333333
147
0.0
147
0.0
147
0.0
147
0.0
147
1.0
147
0.0
147
0.0
147
0.0
147
0.0
147
1.0
  0
MATERIAL
  5
11
102
{ACAD_XDICTIONARY
360
12
102
}
102
{ACAD_REACTORS
330
10
102
}
330
10
100
AcDbMaterial
  1
ByLayer
 72
     0
 43
0.0208333333333333
 43
0.0
 43
0.0
 43
0.0
 43
0.0
 43
0.0208333333333333
 43
0.0
 43
0.0
 43
0.0
 43
0.0
 43
1.0
 43
0.0
 43
0.0
 43
0.0
 43
0.0
 43
1.0
 77
     0
 47
0.0208333333333333
 47
0.0
 47
0.0
 47
0.0
 47
0.0
 47
0.0208333333333333
 47
0.0
 47
0.0
 47
0.0
 47
0.0
 47
1.0
 47
0.0
 47
0.0
 47
0.0
 47
0.0
 47
1.0
171
     0
 49
0.0208333333333333
 49
0.0
 49
0.0
 49
0.0
 49
0.0
 49
0.0208333333333333
 49
0.0
 49
0.0
 49
0.0
 49
0.0
 49
1.0
 49
0.0
 49
0.0
 49
0.0
 49
0.0
 49
1.0
175
     0
142
0.0208333333333333
142
0.0
142
0.0
142
0.0
142
0.0
142
0.0208333333333333
142
0.0
142
0.0
142
0.0
142
0.0
142
1.0
142
0.0
142
0.0
142
0.0
142
0.0
142
1.0
179
     0
144
0.0208333333333333
144
0.0
144
0.0
144
0.0
144
0.0
144
0.0208333333333333
144
0.0
144
0.0
144
0.0
144
0.0
144
1.0
144
0.0
144
0.0
144
0.0
144
0.0
144
1.0
147
0.0208333333333333
147
0.0
147
0.0
147
0.0
147
0.0
147
0.0208333333333333
147
0.0
147
0.0
147
0.0
147
0.0
147
1.0
147
0.0
147
0.0
147
0.0
147
0.0
147
1.0
  0
MATERIAL
  5
21
102
{ACAD_XDICTIONARY
360
22
102
}
102
{ACAD_REACTORS
330
10
102
}
330
10
100
AcDbMaterial
  1
Global
 72
     0
 43
0.0208333333333333
 43
0.0
 43
0.0
 43
0.0
 43
0.0
 43
0.0208333333333333
 43
0.0
 43
0.0
 43
0.0
 43
0.0
 43
1.0
 43
0.0
 43
0.0
 43
0.0
 43
0.0
 43
1.0
 77
     0
 47
0.0208333333333333
 47
0.0
 47
0.0
 47
0.0
 47
0.0
 47
0.0208333333333333
 47
0.0
 47
0.0
 47
0.0
 47
0.0
 47
1.0
 47
0.0
 47
0.0
 47
0.0
 47
0.0
 47
1.0
171
     0
 49
0.0208333333333333
 49
0.0
 49
0.0
 49
0.0
 49
0.0
 49
0.0208333333333333
 49
0.0
 49
0.0
 49
0.0
 49
0.0
 49
1.0
 49
0.0
 49
0.0
 49
0.0
 49
0.0
 49
1.0
175
     0
142
0.0208333333333333
142
0.0
142
0.0
142
0.0
142
0.0
142
0.0208333333333333
142
0.0
142
0.0
142
0.0
142
0.0
142
1.0
142
0.0
142
0.0
142
0.0
142
0.0
142
1.0
179
     0
144
0.0208333333333333
144
0.0
144
0.0
144
0.0
144
0.0
144
0.0208333333333333
144
0.0
144
0.0
144
0.0
144
0.0
144
1.0
144
0.0
144
0.0
144
0.0
144
0.0
144
1.0
147
0.0208333333333333
147
0.0
147
0.0
147
0.0
147
0.0
147
0.0208333333333333
147
0.0
147
0.0
147
0.0
147
0.0
147
1.0
147
0.0
147
0.0
147
0.0
147
0.0
147
1.0
  0
MLEADERSTYLE
  5
67
102
{ACAD_XDICTIONARY
360
40C
102
}
102
{ACAD_REACTORS
330
66
102
}
330
66
100
AcDbMLeaderStyle
179
     2
170
     2
171
     1
172
     0
 90
        2
 40
0.0
 41
0.0
173
     1
 91
-1056964608
340
5B
 92
       -2
290
     1
 42
0.09
291
     1
 43
0.36
  3
Standard
 44
0.18
300

342
55
174
     1
178
     6
175
     1
176
     0
 93
-1056964608
 45
0.18
292
     0
297
     0
 46
0.18
 94
-1056964608
 47
1.0
 49
1.0
140
1.0
293
     1
141
0.0
294
     1
177
     0
142
1.0
295
     0
296
     0
143
0.125
271
     0
272
     9
273
     9
  0
MLINESTYLE
  5
60
102
{ACAD_REACTORS
330
5F
102
}
330
5F
100
AcDbMlineStyle
  2
STANDARD
 70
     0
  3

 62
   256
 51
90.0
 52
90.0
 71
     2
 49
0.5
 62
   256
  6
BYLAYER
 49
-0.5
 62
   256
  6
BYLAYER
  0
ACDBPLACEHOLDER
  5
F
102
{ACAD_REACTORS
330
E
102
}
330
E
  0
SCALE
  5
43
102
{ACAD_REACTORS
330
42
102
}
330
42
100
AcDbScale
 70
     0
300
1:1
140
1.0
141
1.0
290
     1
  0
SCALE
  5
44
102
{ACAD_REACTORS
330
42
102
}
330
42
100
AcDbScale
 70
     0
300
1/128" = 1'-0"
140
0.0078125
141
12.0
290
     0
  0
SCALE
  5
45
102
{ACAD_REACTORS
330
42
102
}
330
42
100
AcDbScale
 70
     0
300
1/64" = 1'-0"
140
0.015625
141
12.0
290
     0
  0
SCALE
  5
46
102
{ACAD_REACTORS
330
42
102
}
330
42
100
AcDbScale
 70
     0
300
1/32" = 1'-0"
140
0.03125
141
12.0
290
     0
  0
SCALE
  5
47
102
{ACAD_REACTORS
330
42
102
}
330
42
100
AcDbScale
 70
     0
300
1/16" = 1'-0"
140
0.0625
141
12.0
290
     0
  0
SCALE
  5
48
102
{ACAD_REACTORS
330
42
102
}
330
42
100
AcDbScale
 70
     0
300
3/32" = 1'-0"
140
0.09375
141
12.0
290
     0
  0
SCALE
  5
49
102
{ACAD_REACTORS
330
42
102
}
330
42
100
AcDbScale
 70
     0
300
1/8" = 1'-0"
140
0.125
141
12.0
290
     0
  0
SCALE
  5
4A
102
{ACAD_REACTORS
330
42
102
}
330
42
100
AcDbScale
 70
     0
300
3/16" = 1'-0"
140
0.1875
141
12.0
290
     0
  0
SCALE
  5
4B
102
{ACAD_REACTORS
330
42
102
}
330
42
100
AcDbScale
 70
     0
300
1/4" = 1'-0"
140
0.25
141
12.0
290
     0
  0
SCALE
  5
4C
102
{ACAD_REACTORS
330
42
102
}
330
42
100
AcDbScale
 70
     0
300
3/8" = 1'-0"
140
0.375
141
12.0
290
     0
  0
SCALE
  5
4D
102
{ACAD_REACTORS
330
42
102
}
330
42
100
AcDbScale
 70
     0
300
1/2" = 1'-0"
140
0.5
141
12.0
290
     0
  0
SCALE
  5
4E
102
{ACAD_REACTORS
330
42
102
}
330
42
100
AcDbScale
 70
     0
300
3/4" = 1'-0"
140
0.75
141
12.0
290
     0
  0
SCALE
  5
4F
102
{ACAD_REACTORS
330
42
102
}
330
42
100
AcDbScale
 70
     0
300
1" = 1'-0"
140
1.0
141
12.0
290
     0
  0
SCALE
  5
50
102
{ACAD_REACTORS
330
42
102
}
330
42
100
AcDbScale
 70
     0
300
1-1/2" = 1'-0"
140
1.5
141
12.0
290
     0
  0
SCALE
  5
51
102
{ACAD_REACTORS
330
42
102
}
330
42
100
AcDbScale
 70
     0
300
3" = 1'-0"
140
3.0
141
12.0
290
     0
  0
SCALE
  5
52
102
{ACAD_REACTORS
330
42
102
}
330
42
100
AcDbScale
 70
     0
300
6" = 1'-0"
140
6.0
141
12.0
290
     0
  0
SCALE
  5
53
102
{ACAD_REACTORS
330
42
102
}
330
42
100
AcDbScale
 70
     0
300
1'-0" = 1'-0"
140
12.0
141
12.0
290
     0
  0
ACDBSECTIONVIEWSTYLE
  5
69
102
{ACAD_XDICTIONARY
360
CC
102
}
102
{ACAD_REACTORS
330
68
102
}
330
68
100
AcDbModelDocViewStyle
 70
     0
  3
Imperial24
290
     0
100
AcDbSectionViewStyle
 70
     0
 71
     0
 90
       78
 71
     1
340
55
 62
   256
 40
0.24
340
0
340
0
 62
   256
 40
0.24
300
I, O, Q, S, X, Z
 40
0.48
 90
        3
 40
0.18
 90
        1
 71
     2
340
5D
 90
       25
 62
   256
340
5D
 90
       50
 62
   256
 40
0.24
 40
0.0
 40
0.24
 71
     3
340
55
 62
   256
 40
0.24
 90
        1
 40
0.75
 90
        1
300
%<\AcVar ViewType \f "%tc1">% %<\AcVar ViewSectionStartId>%-%<\AcVar ViewSectionEndId>%\PSCALE %<\AcVar ViewScale \f "%sn">%
 71
     4
 62
   256
 62
   257
300
ANSI31
 40
1.0
 90
        0
290
     0
290
     0
 90
        6
 40
0.0
 40
1.570796326794896
 40
0.2617993877991494
 40
1.308996938995747
 40
-0.2617993877991494
 40
1.832595714594046
  0
TABLESTYLE
  5
65
102
{ACAD_XDICTIONARY
360
3D9
102
}
102
{ACAD_REACTORS
330
64
102
}
330
64
100
AcDbTableStyle
280
     0
  3
Standard
 70
     0
 71
     0
 40
0.06
 41
0.06
280
     0
281
     0
  7
Standard
140
0.18
170
     2
 62
     0
 63
     7
283
     0
 90
      512
 91
        0
  1

274
    -2
284
     1
 64
     0
275
    -2
285
     1
 65
     0
276
    -2
286
     1
 66
     0
277
    -2
287
     1
 67
     0
278
    -2
288
     1
 68
     0
279
    -2
289
     1
 69
     0
  7
Standard
140
0.25
170
     5
 62
     0
 63
     7
283
     0
 90
      512
 91
        0
  1

274
    -2
284
     1
 64
     0
275
    -2
285
     1
 65
     0
276
    -2
286
     1
 66
     0
277
    -2
287
     1
 67
     0
278
    -2
288
     1
 68
     0
279
    -2
289
     1
 69
     0
  7
Standard
140
0.18
170
     5
 62
     0
 63
     7
283
     0
 90
      512
 91
        0
  1

274
    -2
284
     1
 64
     0
275
    -2
285
     1
 65
     0
276
    -2
286
     1
 66
     0
277
    -2
287
     1
 67
     0
278
    -2
288
     1
 68
     0
279
    -2
289
     1
 69
     0
  0
VISUALSTYLE
  5
2F
102
{ACAD_XDICTIONARY
360
3E6
102
}
102
{ACAD_REACTORS
330
29
102
}
330
29
100
AcDbVisualStyle
  2
2dWireframe
 70
     4
177
     2
291
     0
 71
     0
176
     1
 72
     2
176
     1
 73
     0
176
     1
 90
        0
176
     1
 40
0.6
176
     1
 41
30.0
176
     1
 63
     7
421
 16777215
176
     1
 74
     1
176
     1
 91
        4
176
     1
 64
     7
176
     1
 65
   257
176
     1
 75
     1
176
     1
175
     1
176
     1
 42
1.0
176
     1
 92
        0
176
     1
 66
   257
176
     1
 43
1.0
176
     1
 76
     1
176
     1
 77
     6
176
     1
 78
     2
176
     1
 67
     7
176
     1
 79
     5
176
     1
170
     0
176
     1
171
     0
176
     1
290
     0
176
     1
 93
        1
176
     1
 44
0.0
176
     1
173
     0
176
     1
1001
ACAD
1000
AcDbSavedByObjectVersion
1070
     0
  0
VISUALSTYLE
  5
2E
102
{ACAD_XDICTIONARY
360
3E4
102
}
102
{ACAD_REACTORS
330
29
102
}
330
29
100
AcDbVisualStyle
  2
Basic
 70
     7
177
     2
291
     1
 71
     1
176
     1
 72
     0
176
     1
 73
     1
176
     1
 90
        0
176
     1
 40
0.6
176
     1
 41
30.0
176
     1
 63
     7
421
 16777215
176
     1
 74
     0
176
     1
 91
        4
176
     1
 64
     7
176
     1
 65
   257
176
     1
 75
     1
176
     1
175
     1
176
     1
 42
1.0
176
     1
 92
        8
176
     1
 66
     7
176
     1
 43
1.0
176
     1
 76
     1
176
     1
 77
     6
176
     1
 78
     2
176
     1
 67
     7
176
     1
 79
     5
176
     1
170
     0
176
     1
171
     0
176
     1
290
     0
176
     1
 93
        1
176
     1
 44
0.0
176
     1
173
     0
176
     1
1001
ACAD
1000
AcDbSavedByObjectVersion
1070
     0
  0
VISUALSTYLE
  5
35
102
{ACAD_XDICTIONARY
360
3F2
102
}
102
{ACAD_REACTORS
330
29
102
}
330
29
100
AcDbVisualStyle
  2
Brighten
 70
    12
177
     2
291
     1
 71
     2
176
     1
 72
     2
176
     1
 73
     0
176
     1
 90
        0
176
     1
 40
0.6
176
     1
 41
30.0
176
     1
 63
     7
421
 16777215
176
     1
 74
     1
176
     1
 91
        4
176
     1
 64
     7
176
     1
 65
   257
176
     1
 75
     1
176
     1
175
     1
176
     1
 42
1.0
176
     1
 92
        8
176
     1
 66
     7
176
     1
 43
1.0
176
     1
 76
     1
176
     1
 77
     6
176
     1
 78
     2
176
     1
 67
     7
176
     1
 79
     5
176
     1
170
     0
176
     1
171
     0
176
     1
290
     0
176
     1
 93
        1
176
     1
 44
50.0
176
     1
173
     0
176
     1
1001
ACAD
1000
AcDbSavedByObjectVersion
1070
     0
  0
VISUALSTYLE
  5
39
102
{ACAD_XDICTIONARY
360
3FA
102
}
102
{ACAD_REACTORS
330
29
102
}
330
29
100
AcDbVisualStyle
  2
ColorChange
 70
    16
177
     2
291
     1
 71
     2
176
     1
 72
     2
176
     1
 73
     3
176
     1
 90
        0
176
     1
 40
0.6
176
     1
 41
30.0
176
     1
 63
     8
421
  8421504
176
     1
 74
     1
176
     1
 91
        4
176
     1
 64
     7
176
     1
 65
   257
176
     1
 75
     1
176
     1
175
     1
176
     1
 42
1.0
176
     1
 92
        8
176
     1
 66
     8
424
  8421504
176
     1
 43
1.0
176
     1
 76
     1
176
     1
 77
     6
176
     1
 78
     2
176
     1
 67
     7
176
     1
 79
     5
176
     1
170
     0
176
     1
171
     0
176
     1
290
     0
176
     1
 93
        1
176
     1
 44
0.0
176
     1
173
     0
176
     1
1001
ACAD
1000
AcDbSavedByObjectVersion
1070
     0
  0
VISUALSTYLE
  5
32
102
{ACAD_XDICTIONARY
360
3EC
102
}
102
{ACAD_REACTORS
330
29
102
}
330
29
100
AcDbVisualStyle
  2
Conceptual
 70
     9
177
     2
291
     0
 71
     3
176
     1
 72
     2
176
     1
 73
     0
176
     1
 90
        0
176
     1
 40
0.6
176
     1
 41
30.0
176
     1
 63
     7
421
 16777215
176
     1
 74
     2
176
     1
 91
        2
176
     1
 64
     7
176
     1
 65
   257
176
     1
 75
     1
176
     1
175
     1
176
     1
 42
179.0
176
     1
 92
        8
176
     1
 66
     7
176
     1
 43
1.0
176
     1
 76
     1
176
     1
 77
     6
176
     1
 78
     2
176
     1
 67
     7
176
     1
 79
     3
176
     1
170
     0
176
     1
171
     0
176
     1
290
     0
176
     1
 93
        1
176
     1
 44
0.0
176
     1
173
     0
176
     1
1001
ACAD
1000
AcDbSavedByObjectVersion
1070
     0
  0
VISUALSTYLE
  5
34
102
{ACAD_XDICTIONARY
360
3F0
102
}
102
{ACAD_REACTORS
330
29
102
}
330
29
100
AcDbVisualStyle
  2
Dim
 70
    11
177
     2
291
     1
 71
     2
176
     1
 72
     2
176
     1
 73
     0
176
     1
 90
        0
176
     1
 40
0.6
176
     1
 41
30.0
176
     1
 63
     7
421
 16777215
176
     1
 74
     1
176
     1
 91
        4
176
     1
 64
     7
176
     1
 65
   257
176
     1
 75
     1
176
     1
175
     1
176
     1
 42
1.0
176
     1
 92
        8
176
     1
 66
     7
176
     1
 43
1.0
176
     1
 76
     1
176
     1
 77
     6
176
     1
 78
     2
176
     1
 67
     7
176
     1
 79
     5
176
     1
170
     0
176
     1
171
     0
176
     1
290
     0
176
     1
 93
        1
176
     1
 44
-50.0
176
     1
173
     0
176
     1
1001
ACAD
1000
AcDbSavedByObjectVersion
1070
     0
  0
VISUALSTYLE
  5
41
102
{ACAD_XDICTIONARY
360
40A
102
}
102
{ACAD_REACTORS
330
29
102
}
330
29
100
AcDbVisualStyle
  2
EdgeColorOff
 70
    22
177
     2
291
     1
 71
     2
176
     0
 72
     2
176
     0
 73
     0
176
     0
 90
        0
176
     0
 40
0.6
176
     0
 41
30.0
176
     0
 63
     7
421
 16777215
176
     0
 74
     1
176
     0
 91
        4
176
     0
 64
     7
176
     0
 65
   257
176
     0
 75
     1
176
     0
175
     1
176
     0
 42
1.0
176
     0
 92
        8
176
     2
 66
     7
176
     0
 43
1.0
176
     0
 76
     1
176
     0
 77
     6
176
     0
 78
     2
176
     0
 67
     7
176
     0
 79
     5
176
     0
170
     0
176
     0
171
     0
176
     0
290
     0
176
     0
 93
        1
176
     0
 44
0.0
176
     0
173
     0
176
     0
1001
ACAD
1000
AcDbSavedByObjectVersion
1070
     0
  0
VISUALSTYLE
  5
38
102
{ACAD_XDICTIONARY
360
3F8
102
}
102
{ACAD_REACTORS
330
29
102
}
330
29
100
AcDbVisualStyle
  2
Facepattern
 70
    15
177
     2
291
     1
 71
     2
176
     1
 72
     2
176
     1
 73
     0
176
     1
 90
        0
176
     1
 40
0.6
176
     1
 41
30.0
176
     1
 63
     7
421
 16777215
176
     1
 74
     1
176
     1
 91
        4
176
     1
 64
     7
176
     1
 65
   257
176
     1
 75
     1
176
     1
175
     1
176
     1
 42
1.0
176
     1
 92
        8
176
     1
 66
     7
176
     1
 43
1.0
176
     1
 76
     1
176
     1
 77
     6
176
     1
 78
     2
176
     1
 67
     7
176
     1
 79
     5
176
     1
170
     0
176
     1
171
     0
176
     1
290
     0
176
     1
 93
        1
176
     1
 44
0.0
176
     1
173
     0
176
     1
1001
ACAD
1000
AcDbSavedByObjectVersion
1070
     0
  0
VISUALSTYLE
  5
2A
102
{ACAD_XDICTIONARY
360
3DC
102
}
102
{ACAD_REACTORS
330
29
102
}
330
29
100
AcDbVisualStyle
  2
Flat
 70
     0
177
     2
291
     1
 71
     2
176
     1
 72
     1
176
     1
 73
     1
176
     1
 90
        2
176
     1
 40
0.6
176
     1
 41
30.0
176
     1
 63
     7
421
 16777215
176
     1
 74
     0
176
     1
 91
        0
176
     1
 64
     7
176
     1
 65
   257
176
     1
 75
     1
176
     1
175
     1
176
     1
 42
1.0
176
     1
 92
        8
176
     1
 66
     7
176
     1
 43
1.0
176
     1
 76
     1
176
     1
 77
     6
176
     1
 78
     2
176
     1
 67
     7
176
     1
 79
     5
176
     1
170
     0
176
     1
171
     0
176
     1
290
     0
176
     1
 93
       13
176
     1
 44
0.0
176
     1
173
     0
176
     1
1001
ACAD
1000
AcDbSavedByObjectVersion
1070
     0
  0
VISUALSTYLE
  5
2B
102
{ACAD_XDICTIONARY
360
3DE
102
}
102
{ACAD_REACTORS
330
29
102
}
330
29
100
AcDbVisualStyle
  2
FlatWithEdges
 70
     1
177
     2
291
     1
 71
     2
176
     1
 72
     1
176
     1
 73
     1
176
     1
 90
        2
176
     1
 40
0.6
176
     1
 41
30.0
176
     1
 63
     7
421
 16777215
176
     1
 74
     1
176
     1
 91
        0
176
     1
 64
     7
176
     1
 65
   257
176
     1
 75
     1
176
     1
175
     1
176
     1
 42
1.0
176
     1
 92
        0
176
     1
 66
   257
176
     1
 43
1.0
176
     1
 76
     1
176
     1
 77
     6
176
     1
 78
     2
176
     1
 67
     7
176
     1
 79
     5
176
     1
170
     0
176
     1
171
     0
176
     1
290
     0
176
     1
 93
       13
176
     1
 44
0.0
176
     1
173
     0
176
     1
1001
ACAD
1000
AcDbSavedByObjectVersion
1070
     0
  0
VISUALSTYLE
  5
2C
102
{ACAD_XDICTIONARY
360
3E0
102
}
102
{ACAD_REACTORS
330
29
102
}
330
29
100
AcDbVisualStyle
  2
Gouraud
 70
     2
177
     2
291
     1
 71
     2
176
     1
 72
     2
176
     1
 73
     1
176
     1
 90
        2
176
     1
 40
0.6
176
     1
 41
30.0
176
     1
 63
     7
421
 16777215
176
     1
 74
     0
176
     1
 91
        0
176
     1
 64
     7
176
     1
 65
   257
176
     1
 75
     1
176
     1
175
     1
176
     1
 42
1.0
176
     1
 92
        0
176
     1
 66
     7
176
     1
 43
1.0
176
     1
 76
     1
176
     1
 77
     6
176
     1
 78
     2
176
     1
 67
     7
176
     1
 79
     5
176
     1
170
     0
176
     1
171
     0
176
     1
290
     0
176
     1
 93
       13
176
     1
 44
0.0
176
     1
173
     0
176
     1
1001
ACAD
1000
AcDbSavedByObjectVersion
1070
     0
  0
VISUALSTYLE
  5
2D
102
{ACAD_XDICTIONARY
360
3E2
102
}
102
{ACAD_REACTORS
330
29
102
}
330
29
100
AcDbVisualStyle
  2
GouraudWithEdges
 70
     3
177
     2
291
     1
 71
     2
176
     1
 72
     2
176
     1
 73
     1
176
     1
 90
        2
176
     1
 40
0.6
176
     1
 41
30.0
176
     1
 63
     7
421
 16777215
176
     1
 74
     1
176
     1
 91
        0
176
     1
 64
     7
176
     1
 65
   257
176
     1
 75
     1
176
     1
175
     1
176
     1
 42
1.0
176
     1
 92
        0
176
     1
 66
   257
176
     1
 43
1.0
176
     1
 76
     1
176
     1
 77
     6
176
     1
 78
     2
176
     1
 67
     7
176
     1
 79
     5
176
     1
170
     0
176
     1
171
     0
176
     1
290
     0
176
     1
 93
       13
176
     1
 44
0.0
176
     1
173
     0
176
     1
1001
ACAD
1000
AcDbSavedByObjectVersion
1070
     0
  0
VISUALSTYLE
  5
31
102
{ACAD_XDICTIONARY
360
3EA
102
}
102
{ACAD_REACTORS
330
29
102
}
330
29
100
AcDbVisualStyle
  2
Hidden
 70
     6
177
     2
291
     0
 71
     1
176
     1
 72
     2
176
     1
 73
     2
176
     1
 90
        0
176
     1
 40
0.6
176
     1
 41
30.0
176
     1
 63
     7
421
 16777215
176
     1
 74
     2
176
     1
 91
        2
176
     1
 64
     7
176
     1
 65
   257
176
     1
 75
     2
176
     1
175
     1
176
     1
 42
40.0
176
     1
 92
        0
176
     1
 66
   257
176
     1
 43
1.0
176
     1
 76
     1
176
     1
 77
     6
176
     1
 78
     2
176
     1
 67
     7
176
     1
 79
     3
176
     1
170
     0
176
     1
171
     0
176
     1
290
     0
176
     1
 93
        1
176
     1
 44
0.0
176
     1
173
     0
176
     1
1001
ACAD
1000
AcDbSavedByObjectVersion
1070
     0
  0
VISUALSTYLE
  5
3F
102
{ACAD_XDICTIONARY
360
406
102
}
102
{ACAD_REACTORS
330
29
102
}
330
29
100
AcDbVisualStyle
  2
JitterOff
 70
    20
177
     2
291
     1
 71
     2
176
     0
 72
     2
176
     0
 73
     0
176
     0
 90
        0
176
     0
 40
0.6
176
     0
 41
30.0
176
     0
 63
     7
421
 16777215
176
     0
 74
     1
176
     0
 91
        4
176
     0
 64
     7
176
     0
 65
   257
176
     0
 75
     1
176
     0
175
     1
176
     0
 42
1.0
176
     0
 92
       10
176
     2
 66
     7
176
     0
 43
1.0
176
     0
 76
     1
176
     0
 77
     6
176
     0
 78
     2
176
     0
 67
     7
176
     0
 79
     5
176
     0
170
     0
176
     0
171
     0
176
     0
290
     0
176
     0
 93
        1
176
     0
 44
0.0
176
     0
173
     0
176
     0
1001
ACAD
1000
AcDbSavedByObjectVersion
1070
     0
  0
VISUALSTYLE
  5
37
102
{ACAD_XDICTIONARY
360
3F6
102
}
102
{ACAD_REACTORS
330
29
102
}
330
29
100
AcDbVisualStyle
  2
Linepattern
 70
    14
177
     2
291
     1
 71
     2
176
     1
 72
     2
176
     1
 73
     0
176
     1
 90
        0
176
     1
 40
0.6
176
     1
 41
30.0
176
     1
 63
     7
421
 16777215
176
     1
 74
     1
176
     1
 91
        4
176
     1
 64
     7
176
     1
 65
   257
176
     1
 75
     7
176
     1
175
     7
176
     1
 42
1.0
176
     1
 92
        8
176
     1
 66
     7
176
     1
 43
1.0
176
     1
 76
     1
176
     1
 77
     6
176
     1
 78
     2
176
     1
 67
     7
176
     1
 79
     5
176
     1
170
     0
176
     1
171
     0
176
     1
290
     0
176
     1
 93
        1
176
     1
 44
0.0
176
     1
173
     0
176
     1
1001
ACAD
1000
AcDbSavedByObjectVersion
1070
     0
  0
VISUALSTYLE
  5
40
102
{ACAD_XDICTIONARY
360
408
102
}
102
{ACAD_REACTORS
330
29
102
}
330
29
100
AcDbVisualStyle
  2
OverhangOff
 70
    21
177
     2
291
     1
 71
     2
176
     0
 72
     2
176
     0
 73
     0
176
     0
 90
        0
176
     0
 40
0.6
176
     0
 41
30.0
176
     0
 63
     7
421
 16777215
176
     0
 74
     1
176
     0
 91
        4
176
     0
 64
     7
176
     0
 65
   257
176
     0
 75
     1
176
     0
175
     1
176
     0
 42
1.0
176
     0
 92
        9
176
     2
 66
     7
176
     0
 43
1.0
176
     0
 76
     1
176
     0
 77
     6
176
     0
 78
     2
176
     0
 67
     7
176
     0
 79
     5
176
     0
170
     0
176
     0
171
     0
176
     0
290
     0
176
     0
 93
        1
176
     0
 44
0.0
176
     0
173
     0
176
     0
1001
ACAD
1000
AcDbSavedByObjectVersion
1070
     0
  0
VISUALSTYLE
  5
33
102
{ACAD_XDICTIONARY
360
3EE
102
}
102
{ACAD_REACTORS
330
29
102
}
330
29
100
AcDbVisualStyle
  2
Realistic
 70
     8
177
     2
291
     0
 71
     2
176
     1
 72
     3
176
     1
 73
     0
176
     1
 90
        2
176
     1
 40
0.6
176
     1
 41
30.0
176
     1
 63
     7
421
 16777215
176
     1
 74
     0
176
     1
 91
        0
176
     1
 64
     7
176
     1
 65
   257
176
     1
 75
     1
176
     1
175
     1
176
     1
 42
1.0
176
     1
 92
        8
176
     1
 66
   257
176
     1
 43
1.0
176
     1
 76
     1
176
     1
 77
     6
176
     1
 78
     2
176
     1
 67
     7
176
     1
 79
     3
176
     1
170
     0
176
     1
171
     0
176
     1
290
     0
176
     1
 93
       13
176
     1
 44
0.0
176
     1
173
     0
176
     1
1001
ACAD
1000
AcDbSavedByObjectVersion
1070
     0
  0
VISUALSTYLE
  5
3E
102
{ACAD_XDICTIONARY
360
404
102
}
102
{ACAD_REACTORS
330
29
102
}
330
29
100
AcDbVisualStyle
  2
Shaded
 70
    27
177
     2
291
     0
 71
     2
176
     1
 72
     2
176
     1
 73
     1
176
     1
 90
        2
176
     1
 40
0.6
176
     1
 41
30.0
176
     1
 63
     7
421
 16777215
176
     1
 74
     0
176
     1
 91
        4
176
     1
 64
     7
176
     1
 65
   257
176
     1
 75
     1
176
     1
175
     1
176
     1
 42
1.0
176
     1
 92
        8
176
     1
 66
   257
176
     1
 43
1.0
176
     1
 76
     1
176
     1
 77
     6
176
     1
 78
     2
176
     1
 67
     8
425
  7895160
176
     1
 79
     3
176
     1
170
     0
176
     1
171
     0
176
     1
290
     0
176
     1
 93
        5
176
     1
 44
0.0
176
     1
173
     0
176
     1
1001
ACAD
1000
AcDbSavedByObjectVersion
1070
     0
  0
VISUALSTYLE
  5
3D
102
{ACAD_XDICTIONARY
360
402
102
}
102
{ACAD_REACTORS
330
29
102
}
330
29
100
AcDbVisualStyle
  2
Shaded with edges
 70
    26
177
     2
291
     0
 71
     2
176
     1
 72
     2
176
     1
 73
     1
176
     1
 90
        2
176
     1
 40
0.6
176
     1
 41
30.0
176
     1
 63
     7
421
 16777215
176
     1
 74
     1
176
     1
 91
       10
176
     1
 64
     7
176
     1
 65
   257
176
     1
 75
     2
176
     1
175
     1
176
     1
 42
1.0
176
     1
 92
        8
176
     1
 66
   257
176
     1
 43
1.0
176
     1
 76
     1
176
     1
 77
     6
176
     1
 78
     2
176
     1
 67
     7
176
     1
 79
     3
176
     1
170
     0
176
     1
171
     0
176
     1
290
     0
176
     1
 93
        5
176
     1
 44
0.0
176
     1
173
     0
176
     1
1001
ACAD
1000
AcDbSavedByObjectVersion
1070
     0
  0
VISUALSTYLE
  5
3A
102
{ACAD_XDICTIONARY
360
3FC
102
}
102
{ACAD_REACTORS
330
29
102
}
330
29
100
AcDbVisualStyle
  2
Shades of Gray
 70
    23
177
     2
291
     0
 71
     2
176
     1
 72
     2
176
     1
 73
     3
176
     1
 90
        0
176
     1
 40
0.6
176
     1
 41
30.0
176
     1
 63
     7
421
 16777215
176
     1
 74
     2
176
     1
 91
        2
176
     1
 64
     7
176
     1
 65
     7
176
     1
 75
     1
176
     1
175
     1
176
     1
 42
40.0
176
     1
 92
        8
176
     1
 66
     7
176
     1
 43
1.0
176
     1
 76
     1
176
     1
 77
     6
176
     1
 78
     2
176
     1
 67
     7
176
     1
 79
     3
176
     1
170
     0
176
     1
171
     0
176
     1
290
     0
176
     1
 93
        1
176
     1
 44
0.0
176
     1
173
     0
176
     1
1001
ACAD
1000
AcDbSavedByObjectVersion
1070
     0
  0
VISUALSTYLE
  5
3B
102
{ACAD_XDICTIONARY
360
3FE
102
}
102
{ACAD_REACTORS
330
29
102
}
330
29
100
AcDbVisualStyle
  2
Sketchy
 70
    24
177
     2
291
     0
 71
     1
176
     1
 72
     2
176
     1
 73
     2
176
     1
 90
        0
176
     1
 40
0.6
176
     1
 41
30.0
176
     1
 63
     7
421
 16777215
176
     1
 74
     2
176
     1
 91
        2
176
     1
 64
     7
176
     1
 65
     7
176
     1
 75
     1
176
     1
175
     1
176
     1
 42
40.0
176
     1
 92
       11
176
     1
 66
     7
176
     1
 43
1.0
176
     1
 76
     1
176
     1
 77
     6
176
     1
 78
     2
176
     1
 67
     7
176
     1
 79
     6
176
     1
170
     0
176
     1
171
     0
176
     1
290
     0
176
     1
 93
        1
176
     1
 44
0.0
176
     1
173
     0
176
     1
1001
ACAD
1000
AcDbSavedByObjectVersion
1070
     0
  0
VISUALSTYLE
  5
36
102
{ACAD_XDICTIONARY
360
3F4
102
}
102
{ACAD_REACTORS
330
29
102
}
330
29
100
AcDbVisualStyle
  2
Thicken
 70
    13
177
     2
291
     1
 71
     2
176
     1
 72
     2
176
     1
 73
     0
176
     1
 90
        0
176
     1
 40
0.6
176
     1
 41
30.0
176
     1
 63
     7
421
 16777215
176
     1
 74
     1
176
     1
 91
        4
176
     1
 64
     7
176
     1
 65
   257
176
     1
 75
     1
176
     1
175
     1
176
     1
 42
1.0
176
     1
 92
       12
176
     1
 66
     7
176
     1
 43
1.0
176
     1
 76
     1
176
     1
 77
     6
176
     1
 78
     2
176
     1
 67
     7
176
     1
 79
     5
176
     1
170
     0
176
     1
171
     0
176
     1
290
     0
176
     1
 93
        1
176
     1
 44
0.0
176
     1
173
     0
176
     1
1001
ACAD
1000
AcDbSavedByObjectVersion
1070
     0
  0
VISUALSTYLE
  5
30
102
{ACAD_XDICTIONARY
360
3E8
102
}
102
{ACAD_REACTORS
330
29
102
}
330
29
100
AcDbVisualStyle
  2
Wireframe
 70
     5
177
     2
291
     0
 71
     0
176
     1
 72
     2
176
     1
 73
     0
176
     1
 90
        0
176
     1
 40
0.6
176
     1
 41
30.0
176
     1
 63
     7
421
 16777215
176
     1
 74
     1
176
     1
 91
        4
176
     1
 64
     7
176
     1
 65
   257
176
     1
 75
     1
176
     1
175
     1
176
     1
 42
1.0
176
     1
 92
        0
176
     1
 66
   257
176
     1
 43
1.0
176
     1
 76
     1
176
     1
 77
     6
176
     1
 78
     2
176
     1
 67
     7
176
     1
 79
     3
176
     1
170
     0
176
     1
171
     0
176
     1
290
     0
176
     1
 93
        1
176
     1
 44
0.0
176
     1
173
     0
176
     1
1001
ACAD
1000
AcDbSavedByObjectVersion
1070
     0
  0
VISUALSTYLE
  5
3C
102
{ACAD_XDICTIONARY
360
400
102
}
102
{ACAD_REACTORS
330
29
102
}
330
29
100
AcDbVisualStyle
  2
X-Ray
 70
    25
177
     2
291
     0
 71
     2
176
     1
 72
     2
176
     1
 73
     1
176
     1
 90
        1
176
     1
 40
0.5
176
     1
 41
30.0
176
     1
 63
     7
421
 16777215
176
     1
 74
     1
176
     1
 91
        0
176
     1
 64
     7
176
     1
 65
   257
176
     1
 75
     1
176
     1
175
     1
176
     1
 42
1.0
176
     1
 92
        8
176
     1
 66
     7
176
     1
 43
1.0
176
     1
 76
     1
176
     1
 77
     6
176
     1
 78
     2
176
     1
 67
     7
176
     1
 79
     3
176
     1
170
     0
176
     1
171
     0
176
     1
290
     0
176
     1
 93
       13
176
     1
 44
0.0
176
     1
173
     0
176
     1
1001
ACAD
1000
AcDbSavedByObjectVersion
1070
     0
  0
DICTIONARYVAR
  5
D6
102
{ACAD_REACTORS
330
D1
102
}
330
D1
100
DictionaryVariables
280
     0
  1
1:1
  0
DICTIONARYVAR
  5
D3
102
{ACAD_REACTORS
330
D1
102
}
330
D1
100
DictionaryVariables
280
     0
  1
STANDARD
  0
DICTIONARYVAR
  5
D2
102
{ACAD_REACTORS
330
D1
102
}
330
D1
100
DictionaryVariables
280
     0
  1
STANDARD
  0
DICTIONARYVAR
  5
D4
102
{ACAD_REACTORS
330
D1
102
}
330
D1
100
DictionaryVariables
280
     0
  1
Imperial24
  0
DICTIONARYVAR
  5
D5
102
{ACAD_REACTORS
330
D1
102
}
330
D1
100
DictionaryVariables
280
     0
  1
Imperial24
  0
XRECORD
  5
C9
102
{ACAD_REACTORS
330
C7
102
}
330
C7
100
AcDbXrecord
280
     1
  1
BUILDING_ID
  1
Toilet_Seat-Elongated-American_Standard-Transitional-5024A
  1
FLOOR_ID
  1
23
  0
XRECORD
  5
C8
102
{ACAD_REACTORS
330
C7
102
}
330
C7
100
AcDbXrecord
280
     1
  1
-2001350
  1
Specialty Equipment
  0
DICTIONARY
  5
CE
330
6B
100
AcDbDictionary
280
     1
281
     1
  3
ACAD_XREC_ROUNDTRIP
360
40F
  0
DICTIONARY
  5
1A
330
19
100
AcDbDictionary
280
     1
281
     1
  3
BUMPTILE
360
1C
  3
DIFFUSETILE
360
1B
  3
OPACITYTILE
360
1F
  3
REFLECTIONTILE
360
1E
  3
REFRACTIONTILE
360
20
  3
SPECULARTILE
360
1D
  0
DICTIONARY
  5
12
330
11
100
AcDbDictionary
280
     1
281
     1
  3
BUMPTILE
360
14
  3
DIFFUSETILE
360
13
  3
OPACITYTILE
360
17
  3
REFLECTIONTILE
360
16
  3
REFRACTIONTILE
360
18
  3
SPECULARTILE
360
15
  0
DICTIONARY
  5
22
330
21
100
AcDbDictionary
280
     1
281
     1
  3
BUMPTILE
360
24
  3
DIFFUSETILE
360
23
  3
OPACITYTILE
360
27
  3
REFLECTIONTILE
360
26
  3
REFRACTIONTILE
360
28
  3
SPECULARTILE
360
25
  0
DICTIONARY
  5
40C
330
67
100
AcDbDictionary
280
     1
281
     1
  3
ACAD_XREC_ROUNDTRIP
360
40D
  0
DICTIONARY
  5
CC
330
69
100
AcDbDictionary
280
     1
281
     1
  3
ACAD_XREC_ROUNDTRIP
360
40E
  0
DICTIONARY
  5
3D9
330
65
100
AcDbDictionary
280
     1
281
     1
  3
ACAD_ROUNDTRIP_2008_TABLESTYLE_CELLSTYLEMAP
360
3DA
  0
DICTIONARY
  5
3E6
330
2F
100
AcDbDictionary
280
     1
281
     1
  3
ACAD_XREC_ROUNDTRIP
360
3E7
  0
DICTIONARY
  5
3E4
330
2E
100
AcDbDictionary
280
     1
281
     1
  3
ACAD_XREC_ROUNDTRIP
360
3E5
  0
DICTIONARY
  5
3F2
330
35
100
AcDbDictionary
280
     1
281
     1
  3
ACAD_XREC_ROUNDTRIP
360
3F3
  0
DICTIONARY
  5
3FA
330
39
100
AcDbDictionary
280
     1
281
     1
  3
ACAD_XREC_ROUNDTRIP
360
3FB
  0
DICTIONARY
  5
3EC
330
32
100
AcDbDictionary
280
     1
281
     1
  3
ACAD_XREC_ROUNDTRIP
360
3ED
  0
DICTIONARY
  5
3F0
330
34
100
AcDbDictionary
280
     1
281
     1
  3
ACAD_XREC_ROUNDTRIP
360
3F1
  0
DICTIONARY
  5
40A
330
41
100
AcDbDictionary
280
     1
281
     1
  3
ACAD_XREC_ROUNDTRIP
360
40B
  0
DICTIONARY
  5
3F8
330
38
100
AcDbDictionary
280
     1
281
     1
  3
ACAD_XREC_ROUNDTRIP
360
3F9
  0
DICTIONARY
  5
3DC
330
2A
100
AcDbDictionary
280
     1
281
     1
  3
ACAD_XREC_ROUNDTRIP
360
3DD
  0
DICTIONARY
  5
3DE
330
2B
100
AcDbDictionary
280
     1
281
     1
  3
ACAD_XREC_ROUNDTRIP
360
3DF
  0
DICTIONARY
  5
3E0
330
2C
100
AcDbDictionary
280
     1
281
     1
  3
ACAD_XREC_ROUNDTRIP
360
3E1
  0
DICTIONARY
  5
3E2
330
2D
100
AcDbDictionary
280
     1
281
     1
  3
ACAD_XREC_ROUNDTRIP
360
3E3
  0
DICTIONARY
  5
3EA
330
31
100
AcDbDictionary
280
     1
281
     1
  3
ACAD_XREC_ROUNDTRIP
360
3EB
  0
DICTIONARY
  5
406
330
3F
100
AcDbDictionary
280
     1
281
     1
  3
ACAD_XREC_ROUNDTRIP
360
407
  0
DICTIONARY
  5
3F6
330
37
100
AcDbDictionary
280
     1
281
     1
  3
ACAD_XREC_ROUNDTRIP
360
3F7
  0
DICTIONARY
  5
408
330
40
100
AcDbDictionary
280
     1
281
     1
  3
ACAD_XREC_ROUNDTRIP
360
409
  0
DICTIONARY
  5
3EE
330
33
100
AcDbDictionary
280
     1
281
     1
  3
ACAD_XREC_ROUNDTRIP
360
3EF
  0
DICTIONARY
  5
404
330
3E
100
AcDbDictionary
280
     1
281
     1
  3
ACAD_XREC_ROUNDTRIP
360
405
  0
DICTIONARY
  5
402
330
3D
100
AcDbDictionary
280
     1
281
     1
  3
ACAD_XREC_ROUNDTRIP
360
403
  0
DICTIONARY
  5
3FC
330
3A
100
AcDbDictionary
280
     1
281
     1
  3
ACAD_XREC_ROUNDTRIP
360
3FD
  0
DICTIONARY
  5
3FE
330
3B
100
AcDbDictionary
280
     1
281
     1
  3
ACAD_XREC_ROUNDTRIP
360
3FF
  0
DICTIONARY
  5
3F4
330
36
100
AcDbDictionary
280
     1
281
     1
  3
ACAD_XREC_ROUNDTRIP
360
3F5
  0
DICTIONARY
  5
3E8
330
30
100
AcDbDictionary
280
     1
281
     1
  3
ACAD_XREC_ROUNDTRIP
360
3E9
  0
DICTIONARY
  5
400
330
3C
100
AcDbDictionary
280
     1
281
     1
  3
ACAD_XREC_ROUNDTRIP
360
401
  0
XRECORD
  5
40F
102
{ACAD_REACTORS
330
CE
102
}
330
CE
100
AcDbXrecord
280
     1
102
DISPLAYNAME
  1
Imperial24
102
FLAGS
 90
        0
  0
XRECORD
  5
1C
102
{ACAD_REACTORS
330
1A
102
}
330
1A
100
AcDbXrecord
280
     1
270
     1
271
     1
  0
XRECORD
  5
1B
102
{ACAD_REACTORS
330
1A
102
}
330
1A
100
AcDbXrecord
280
     1
270
     1
271
     1
  0
XRECORD
  5
1F
102
{ACAD_REACTORS
330
1A
102
}
330
1A
100
AcDbXrecord
280
     1
270
     1
271
     1
  0
XRECORD
  5
1E
102
{ACAD_REACTORS
330
1A
102
}
330
1A
100
AcDbXrecord
280
     1
270
     1
271
     1
  0
XRECORD
  5
20
102
{ACAD_REACTORS
330
1A
102
}
330
1A
100
AcDbXrecord
280
     1
270
     1
271
     1
  0
XRECORD
  5
1D
102
{ACAD_REACTORS
330
1A
102
}
330
1A
100
AcDbXrecord
280
     1
270
     1
271
     1
  0
XRECORD
  5
14
102
{ACAD_REACTORS
330
12
102
}
330
12
100
AcDbXrecord
280
     1
270
     1
271
     1
  0
XRECORD
  5
13
102
{ACAD_REACTORS
330
12
102
}
330
12
100
AcDbXrecord
280
     1
270
     1
271
     1
  0
XRECORD
  5
17
102
{ACAD_REACTORS
330
12
102
}
330
12
100
AcDbXrecord
280
     1
270
     1
271
     1
  0
XRECORD
  5
16
102
{ACAD_REACTORS
330
12
102
}
330
12
100
AcDbXrecord
280
     1
270
     1
271
     1
  0
XRECORD
  5
18
102
{ACAD_REACTORS
330
12
102
}
330
12
100
AcDbXrecord
280
     1
270
     1
271
     1
  0
XRECORD
  5
15
102
{ACAD_REACTORS
330
12
102
}
330
12
100
AcDbXrecord
280
     1
270
     1
271
     1
  0
XRECORD
  5
24
102
{ACAD_REACTORS
330
22
102
}
330
22
100
AcDbXrecord
280
     1
270
     1
271
     1
  0
XRECORD
  5
23
102
{ACAD_REACTORS
330
22
102
}
330
22
100
AcDbXrecord
280
     1
270
     1
271
     1
  0
XRECORD
  5
27
102
{ACAD_REACTORS
330
22
102
}
330
22
100
AcDbXrecord
280
     1
270
     1
271
     1
  0
XRECORD
  5
26
102
{ACAD_REACTORS
330
22
102
}
330
22
100
AcDbXrecord
280
     1
270
     1
271
     1
  0
XRECORD
  5
28
102
{ACAD_REACTORS
330
22
102
}
330
22
100
AcDbXrecord
280
     1
270
     1
271
     1
  0
XRECORD
  5
25
102
{ACAD_REACTORS
330
22
102
}
330
22
100
AcDbXrecord
280
     1
270
     1
271
     1
  0
XRECORD
  5
40D
102
{ACAD_REACTORS
330
40C
102
}
330
40C
100
AcDbXrecord
280
     1
102
ACAD_ROUNDTRIP_2012_MLEADER_STYLE
298
     1
  0
XRECORD
  5
40E
102
{ACAD_REACTORS
330
CC
102
}
330
CC
100
AcDbXrecord
280
     1
102
DISPLAYNAME
  1
Imperial24
102
FLAGS
 90
        0
  0
CELLSTYLEMAP
  5
3DA
102
{ACAD_REACTORS
330
3D9
102
}
330
3D9
100
AcDbCellStyleMap
 90
        3
300
CELLSTYLE
  1
TABLEFORMAT_BEGIN
 90
        5
170
     1
 91
        0
 92
    32768
 62
   257
 93
        1
300
CONTENTFORMAT
  1
CONTENTFORMAT_BEGIN
 90
        0
 91
        0
 92
      512
 93
        0
300

 40
0.0
140
1.0
 94
        5
 62
     0
340
55
144
0.25
309
CONTENTFORMAT_END
171
     0
 94
        0
309
TABLEFORMAT_END
  1
CELLSTYLE_BEGIN
 90
        1
 91
        1
300
_TITLE
309
CELLSTYLE_END
300
CELLSTYLE
  1
TABLEFORMAT_BEGIN
 90
        5
170
     1
 91
        0
 92
        0
 62
   257
 93
        1
300
CONTENTFORMAT
  1
CONTENTFORMAT_BEGIN
 90
        0
 91
        0
 92
      512
 93
        0
300

 40
0.0
140
1.0
 94
        5
 62
     0
340
55
144
0.18
309
CONTENTFORMAT_END
171
     0
 94
        0
309
TABLEFORMAT_END
  1
CELLSTYLE_BEGIN
 90
        2
 91
        1
300
_HEADER
309
CELLSTYLE_END
300
CELLSTYLE
  1
TABLEFORMAT_BEGIN
 90
        5
170
     1
 91
        0
 92
        0
 62
   257
 93
        1
300
CONTENTFORMAT
  1
CONTENTFORMAT_BEGIN
 90
        0
 91
        0
 92
      512
 93
        0
300

 40
0.0
140
1.0
 94
        2
 62
     0
340
55
144
0.18
309
CONTENTFORMAT_END
171
     0
 94
        0
309
TABLEFORMAT_END
  1
CELLSTYLE_BEGIN
 90
        3
 91
        2
300
_DATA
309
CELLSTYLE_END
  0
XRECORD
  5
3E7
102
{ACAD_REACTORS
330
3E6
102
}
330
3E6
100
AcDbXrecord
280
     1
102
RTVSPost2010Prop28
280
     1
102
RTVSPost2010PropOp28
 70
     1
102
RTVSPost2010Prop29
280
     1
102
RTVSPost2010PropOp29
 70
     1
102
RTVSPost2010Prop30
280
     0
102
RTVSPost2010PropOp30
 70
     1
102
RTVSPost2010Prop31
280
     0
102
RTVSPost2010PropOp31
 70
     1
102
RTVSPost2010Prop32
280
     0
102
RTVSPost2010PropOp32
 70
     1
102
RTVSPost2010Prop33
280
     0
102
RTVSPost2010PropOp33
 70
     1
102
RTVSPost2010Prop34
280
     0
102
RTVSPost2010PropOp34
 70
     1
102
RTVSPost2010Prop35
280
     0
102
RTVSPost2010PropOp35
 70
     1
102
RTVSPost2010Prop36
280
     0
102
RTVSPost2010PropOp36
 70
     1
102
RTVSPost2010Prop37
 90
       50
102
RTVSPost2010PropOp37
 70
     1
102
RTVSPost2010Prop38
140
0.0
102
RTVSPost2010PropOp38
 70
     1
102
RTVSPost2010Prop39
140
1.0
102
RTVSPost2010PropOp39
 70
     1
102
RTVSPost2010Prop40
 90
        0
102
RTVSPost2010PropOp40
 70
     1
102
RTVSPost2010Prop41ColorIndex
 90
       18
102
RTVSPost2010Prop41ColorRGB
 90
        0
102
RTVSPost2010PropOp41
 70
     1
102
RTVSPost2010Prop42
 90
       50
102
RTVSPost2010PropOp42
 70
     1
102
RTVSPost2010Prop43
 90
        3
102
RTVSPost2010PropOp43
 70
     1
102
RTVSPost2010Prop44ColorIndex
 90
        5
102
RTVSPost2010Prop44ColorRGB
 90
      255
102
RTVSPost2010PropOp44
 70
     1
102
RTVSPost2010Prop45
280
     0
102
RTVSPost2010PropOp45
 70
     1
102
RTVSPost2010Prop46
 90
       50
102
RTVSPost2010PropOp46
 70
     1
102
RTVSPost2010Prop47
 90
       50
102
RTVSPost2010PropOp47
 70
     1
102
RTVSPost2010Prop48
 90
       50
102
RTVSPost2010PropOp48
 70
     1
102
RTVSPost2010Prop49
280
     0
102
RTVSPost2010PropOp49
 70
     1
102
RTVSPost2010Prop50
 90
       50
102
RTVSPost2010PropOp50
 70
     1
102
RTVSPost2010Prop51ColorIndex
 90
      256
102
RTVSPost2010Prop51ColorRGB
 90
-16777216
102
RTVSPost2010PropOp51
 70
     0
102
RTVSPost2010Prop52
140
1.0
102
RTVSPost2010PropOp52
 70
     0
102
RTVSPost2010Prop53
 90
        2
102
RTVSPost2010PropOp53
 70
     1
102
RTVSPost2010Prop54
  1
strokes_ogs.tif
102
RTVSPost2010PropOp54
 70
     1
102
RTVSPost2010Prop55
280
     0
102
RTVSPost2010PropOp55
 70
     1
102
RTVSPost2010Prop56
140
1.0
102
RTVSPost2010PropOp56
 70
     1
102
RTVSPost2010Prop57
140
1.0
102
RTVSPost2010PropOp57
 70
     1
  0
XRECORD
  5
3E5
102
{ACAD_REACTORS
330
3E4
102
}
330
3E4
100
AcDbXrecord
280
     1
102
RTVSPost2010Prop28
280
     0
102
RTVSPost2010PropOp28
 70
     1
102
RTVSPost2010Prop29
280
     1
102
RTVSPost2010PropOp29
 70
     1
102
RTVSPost2010Prop30
280
     1
102
RTVSPost2010PropOp30
 70
     1
102
RTVSPost2010Prop31
280
     0
102
RTVSPost2010PropOp31
 70
     1
102
RTVSPost2010Prop32
280
     0
102
RTVSPost2010PropOp32
 70
     1
102
RTVSPost2010Prop33
280
     0
102
RTVSPost2010PropOp33
 70
     1
102
RTVSPost2010Prop34
280
     0
102
RTVSPost2010PropOp34
 70
     1
102
RTVSPost2010Prop35
280
     0
102
RTVSPost2010PropOp35
 70
     1
102
RTVSPost2010Prop36
280
     0
102
RTVSPost2010PropOp36
 70
     1
102
RTVSPost2010Prop37
 90
       50
102
RTVSPost2010PropOp37
 70
     1
102
RTVSPost2010Prop38
140
0.0
102
RTVSPost2010PropOp38
 70
     1
102
RTVSPost2010Prop39
140
1.0
102
RTVSPost2010PropOp39
 70
     1
102
RTVSPost2010Prop40
 90
        0
102
RTVSPost2010PropOp40
 70
     1
102
RTVSPost2010Prop41ColorIndex
 90
       18
102
RTVSPost2010Prop41ColorRGB
 90
        0
102
RTVSPost2010PropOp41
 70
     1
102
RTVSPost2010Prop42
 90
       50
102
RTVSPost2010PropOp42
 70
     1
102
RTVSPost2010Prop43
 90
        3
102
RTVSPost2010PropOp43
 70
     1
102
RTVSPost2010Prop44ColorIndex
 90
        5
102
RTVSPost2010Prop44ColorRGB
 90
      255
102
RTVSPost2010PropOp44
 70
     1
102
RTVSPost2010Prop45
280
     0
102
RTVSPost2010PropOp45
 70
     1
102
RTVSPost2010Prop46
 90
       50
102
RTVSPost2010PropOp46
 70
     1
102
RTVSPost2010Prop47
 90
       50
102
RTVSPost2010PropOp47
 70
     1
102
RTVSPost2010Prop48
 90
       50
102
RTVSPost2010PropOp48
 70
     1
102
RTVSPost2010Prop49
280
     0
102
RTVSPost2010PropOp49
 70
     1
102
RTVSPost2010Prop50
 90
       50
102
RTVSPost2010PropOp50
 70
     1
102
RTVSPost2010Prop51ColorIndex
 90
      256
102
RTVSPost2010Prop51ColorRGB
 90
-16777216
102
RTVSPost2010PropOp51
 70
     0
102
RTVSPost2010Prop52
140
1.0
102
RTVSPost2010PropOp52
 70
     0
102
RTVSPost2010Prop53
 90
        2
102
RTVSPost2010PropOp53
 70
     1
102
RTVSPost2010Prop54
  1
strokes_ogs.tif
102
RTVSPost2010PropOp54
 70
     1
102
RTVSPost2010Prop55
280
     0
102
RTVSPost2010PropOp55
 70
     1
102
RTVSPost2010Prop56
140
1.0
102
RTVSPost2010PropOp56
 70
     1
102
RTVSPost2010Prop57
140
1.0
102
RTVSPost2010PropOp57
 70
     1
  0
XRECORD
  5
3F3
102
{ACAD_REACTORS
330
3F2
102
}
330
3F2
100
AcDbXrecord
280
     1
102
RTVSPost2010Prop28
280
     0
102
RTVSPost2010PropOp28
 70
     1
102
RTVSPost2010Prop29
280
     1
102
RTVSPost2010PropOp29
 70
     1
102
RTVSPost2010Prop30
280
     1
102
RTVSPost2010PropOp30
 70
     1
102
RTVSPost2010Prop31
280
     0
102
RTVSPost2010PropOp31
 70
     1
102
RTVSPost2010Prop32
280
     0
102
RTVSPost2010PropOp32
 70
     1
102
RTVSPost2010Prop33
280
     0
102
RTVSPost2010PropOp33
 70
     1
102
RTVSPost2010Prop34
280
     0
102
RTVSPost2010PropOp34
 70
     1
102
RTVSPost2010Prop35
280
     0
102
RTVSPost2010PropOp35
 70
     1
102
RTVSPost2010Prop36
280
     0
102
RTVSPost2010PropOp36
 70
     1
102
RTVSPost2010Prop37
 90
       50
102
RTVSPost2010PropOp37
 70
     1
102
RTVSPost2010Prop38
140
0.0
102
RTVSPost2010PropOp38
 70
     1
102
RTVSPost2010Prop39
140
1.0
102
RTVSPost2010PropOp39
 70
     1
102
RTVSPost2010Prop40
 90
        0
102
RTVSPost2010PropOp40
 70
     1
102
RTVSPost2010Prop41ColorIndex
 90
       18
102
RTVSPost2010Prop41ColorRGB
 90
        0
102
RTVSPost2010PropOp41
 70
     1
102
RTVSPost2010Prop42
 90
       50
102
RTVSPost2010PropOp42
 70
     1
102
RTVSPost2010Prop43
 90
        3
102
RTVSPost2010PropOp43
 70
     1
102
RTVSPost2010Prop44ColorIndex
 90
        5
102
RTVSPost2010Prop44ColorRGB
 90
      255
102
RTVSPost2010PropOp44
 70
     1
102
RTVSPost2010Prop45
280
     0
102
RTVSPost2010PropOp45
 70
     1
102
RTVSPost2010Prop46
 90
       50
102
RTVSPost2010PropOp46
 70
     1
102
RTVSPost2010Prop47
 90
       50
102
RTVSPost2010PropOp47
 70
     1
102
RTVSPost2010Prop48
 90
       50
102
RTVSPost2010PropOp48
 70
     1
102
RTVSPost2010Prop49
280
     0
102
RTVSPost2010PropOp49
 70
     1
102
RTVSPost2010Prop50
 90
       50
102
RTVSPost2010PropOp50
 70
     1
102
RTVSPost2010Prop51ColorIndex
 90
      256
102
RTVSPost2010Prop51ColorRGB
 90
-16777216
102
RTVSPost2010PropOp51
 70
     0
102
RTVSPost2010Prop52
140
1.0
102
RTVSPost2010PropOp52
 70
     0
102
RTVSPost2010Prop53
 90
        2
102
RTVSPost2010PropOp53
 70
     1
102
RTVSPost2010Prop54
  1
strokes_ogs.tif
102
RTVSPost2010PropOp54
 70
     1
102
RTVSPost2010Prop55
280
     0
102
RTVSPost2010PropOp55
 70
     1
102
RTVSPost2010Prop56
140
1.0
102
RTVSPost2010PropOp56
 70
     1
102
RTVSPost2010Prop57
140
1.0
102
RTVSPost2010PropOp57
 70
     1
  0
XRECORD
  5
3FB
102
{ACAD_REACTORS
330
3FA
102
}
330
3FA
100
AcDbXrecord
280
     1
102
RTVSPost2010Prop28
280
     0
102
RTVSPost2010PropOp28
 70
     1
102
RTVSPost2010Prop29
280
     1
102
RTVSPost2010PropOp29
 70
     1
102
RTVSPost2010Prop30
280
     1
102
RTVSPost2010PropOp30
 70
     1
102
RTVSPost2010Prop31
280
     0
102
RTVSPost2010PropOp31
 70
     1
102
RTVSPost2010Prop32
280
     0
102
RTVSPost2010PropOp32
 70
     1
102
RTVSPost2010Prop33
280
     0
102
RTVSPost2010PropOp33
 70
     1
102
RTVSPost2010Prop34
280
     0
102
RTVSPost2010PropOp34
 70
     1
102
RTVSPost2010Prop35
280
     0
102
RTVSPost2010PropOp35
 70
     1
102
RTVSPost2010Prop36
280
     0
102
RTVSPost2010PropOp36
 70
     1
102
RTVSPost2010Prop37
 90
       50
102
RTVSPost2010PropOp37
 70
     1
102
RTVSPost2010Prop38
140
0.0
102
RTVSPost2010PropOp38
 70
     1
102
RTVSPost2010Prop39
140
1.0
102
RTVSPost2010PropOp39
 70
     1
102
RTVSPost2010Prop40
 90
        0
102
RTVSPost2010PropOp40
 70
     1
102
RTVSPost2010Prop41ColorIndex
 90
       18
102
RTVSPost2010Prop41ColorRGB
 90
        0
102
RTVSPost2010PropOp41
 70
     1
102
RTVSPost2010Prop42
 90
       50
102
RTVSPost2010PropOp42
 70
     1
102
RTVSPost2010Prop43
 90
        3
102
RTVSPost2010PropOp43
 70
     1
102
RTVSPost2010Prop44ColorIndex
 90
        5
102
RTVSPost2010Prop44ColorRGB
 90
      255
102
RTVSPost2010PropOp44
 70
     1
102
RTVSPost2010Prop45
280
     0
102
RTVSPost2010PropOp45
 70
     1
102
RTVSPost2010Prop46
 90
       50
102
RTVSPost2010PropOp46
 70
     1
102
RTVSPost2010Prop47
 90
       50
102
RTVSPost2010PropOp47
 70
     1
102
RTVSPost2010Prop48
 90
       50
102
RTVSPost2010PropOp48
 70
     1
102
RTVSPost2010Prop49
280
     0
102
RTVSPost2010PropOp49
 70
     1
102
RTVSPost2010Prop50
 90
       50
102
RTVSPost2010PropOp50
 70
     1
102
RTVSPost2010Prop51ColorIndex
 90
      256
102
RTVSPost2010Prop51ColorRGB
 90
-16777216
102
RTVSPost2010PropOp51
 70
     0
102
RTVSPost2010Prop52
140
1.0
102
RTVSPost2010PropOp52
 70
     0
102
RTVSPost2010Prop53
 90
        2
102
RTVSPost2010PropOp53
 70
     1
102
RTVSPost2010Prop54
  1
strokes_ogs.tif
102
RTVSPost2010PropOp54
 70
     1
102
RTVSPost2010Prop55
280
     0
102
RTVSPost2010PropOp55
 70
     1
102
RTVSPost2010Prop56
140
1.0
102
RTVSPost2010PropOp56
 70
     1
102
RTVSPost2010Prop57
140
1.0
102
RTVSPost2010PropOp57
 70
     1
  0
XRECORD
  5
3ED
102
{ACAD_REACTORS
330
3EC
102
}
330
3EC
100
AcDbXrecord
280
     1
102
RTVSPost2010Prop28
280
     0
102
RTVSPost2010PropOp28
 70
     1
102
RTVSPost2010Prop29
280
     1
102
RTVSPost2010PropOp29
 70
     1
102
RTVSPost2010Prop30
280
     1
102
RTVSPost2010PropOp30
 70
     1
102
RTVSPost2010Prop31
280
     0
102
RTVSPost2010PropOp31
 70
     1
102
RTVSPost2010Prop32
280
     0
102
RTVSPost2010PropOp32
 70
     1
102
RTVSPost2010Prop33
280
     0
102
RTVSPost2010PropOp33
 70
     1
102
RTVSPost2010Prop34
280
     0
102
RTVSPost2010PropOp34
 70
     1
102
RTVSPost2010Prop35
280
     0
102
RTVSPost2010PropOp35
 70
     1
102
RTVSPost2010Prop36
280
     0
102
RTVSPost2010PropOp36
 70
     1
102
RTVSPost2010Prop37
 90
       50
102
RTVSPost2010PropOp37
 70
     1
102
RTVSPost2010Prop38
140
0.0
102
RTVSPost2010PropOp38
 70
     1
102
RTVSPost2010Prop39
140
1.0
102
RTVSPost2010PropOp39
 70
     1
102
RTVSPost2010Prop40
 90
        0
102
RTVSPost2010PropOp40
 70
     1
102
RTVSPost2010Prop41ColorIndex
 90
       18
102
RTVSPost2010Prop41ColorRGB
 90
        0
102
RTVSPost2010PropOp41
 70
     1
102
RTVSPost2010Prop42
 90
       50
102
RTVSPost2010PropOp42
 70
     1
102
RTVSPost2010Prop43
 90
        3
102
RTVSPost2010PropOp43
 70
     1
102
RTVSPost2010Prop44ColorIndex
 90
        5
102
RTVSPost2010Prop44ColorRGB
 90
      255
102
RTVSPost2010PropOp44
 70
     1
102
RTVSPost2010Prop45
280
     0
102
RTVSPost2010PropOp45
 70
     1
102
RTVSPost2010Prop46
 90
       50
102
RTVSPost2010PropOp46
 70
     1
102
RTVSPost2010Prop47
 90
       50
102
RTVSPost2010PropOp47
 70
     1
102
RTVSPost2010Prop48
 90
       50
102
RTVSPost2010PropOp48
 70
     1
102
RTVSPost2010Prop49
280
     0
102
RTVSPost2010PropOp49
 70
     1
102
RTVSPost2010Prop50
 90
       50
102
RTVSPost2010PropOp50
 70
     1
102
RTVSPost2010Prop51ColorIndex
 90
      256
102
RTVSPost2010Prop51ColorRGB
 90
-16777216
102
RTVSPost2010PropOp51
 70
     0
102
RTVSPost2010Prop52
140
1.0
102
RTVSPost2010PropOp52
 70
     0
102
RTVSPost2010Prop53
 90
        2
102
RTVSPost2010PropOp53
 70
     1
102
RTVSPost2010Prop54
  1
strokes_ogs.tif
102
RTVSPost2010PropOp54
 70
     1
102
RTVSPost2010Prop55
280
     0
102
RTVSPost2010PropOp55
 70
     1
102
RTVSPost2010Prop56
140
1.0
102
RTVSPost2010PropOp56
 70
     1
102
RTVSPost2010Prop57
140
1.0
102
RTVSPost2010PropOp57
 70
     1
  0
XRECORD
  5
3F1
102
{ACAD_REACTORS
330
3F0
102
}
330
3F0
100
AcDbXrecord
280
     1
102
RTVSPost2010Prop28
280
     0
102
RTVSPost2010PropOp28
 70
     1
102
RTVSPost2010Prop29
280
     1
102
RTVSPost2010PropOp29
 70
     1
102
RTVSPost2010Prop30
280
     1
102
RTVSPost2010PropOp30
 70
     1
102
RTVSPost2010Prop31
280
     0
102
RTVSPost2010PropOp31
 70
     1
102
RTVSPost2010Prop32
280
     0
102
RTVSPost2010PropOp32
 70
     1
102
RTVSPost2010Prop33
280
     0
102
RTVSPost2010PropOp33
 70
     1
102
RTVSPost2010Prop34
280
     0
102
RTVSPost2010PropOp34
 70
     1
102
RTVSPost2010Prop35
280
     0
102
RTVSPost2010PropOp35
 70
     1
102
RTVSPost2010Prop36
280
     0
102
RTVSPost2010PropOp36
 70
     1
102
RTVSPost2010Prop37
 90
       50
102
RTVSPost2010PropOp37
 70
     1
102
RTVSPost2010Prop38
140
0.0
102
RTVSPost2010PropOp38
 70
     1
102
RTVSPost2010Prop39
140
1.0
102
RTVSPost2010PropOp39
 70
     1
102
RTVSPost2010Prop40
 90
        0
102
RTVSPost2010PropOp40
 70
     1
102
RTVSPost2010Prop41ColorIndex
 90
       18
102
RTVSPost2010Prop41ColorRGB
 90
        0
102
RTVSPost2010PropOp41
 70
     1
102
RTVSPost2010Prop42
 90
       50
102
RTVSPost2010PropOp42
 70
     1
102
RTVSPost2010Prop43
 90
        3
102
RTVSPost2010PropOp43
 70
     1
102
RTVSPost2010Prop44ColorIndex
 90
        5
102
RTVSPost2010Prop44ColorRGB
 90
      255
102
RTVSPost2010PropOp44
 70
     1
102
RTVSPost2010Prop45
280
     0
102
RTVSPost2010PropOp45
 70
     1
102
RTVSPost2010Prop46
 90
       50
102
RTVSPost2010PropOp46
 70
     1
102
RTVSPost2010Prop47
 90
       50
102
RTVSPost2010PropOp47
 70
     1
102
RTVSPost2010Prop48
 90
       50
102
RTVSPost2010PropOp48
 70
     1
102
RTVSPost2010Prop49
280
     0
102
RTVSPost2010PropOp49
 70
     1
102
RTVSPost2010Prop50
 90
       50
102
RTVSPost2010PropOp50
 70
     1
102
RTVSPost2010Prop51ColorIndex
 90
      256
102
RTVSPost2010Prop51ColorRGB
 90
-16777216
102
RTVSPost2010PropOp51
 70
     0
102
RTVSPost2010Prop52
140
1.0
102
RTVSPost2010PropOp52
 70
     0
102
RTVSPost2010Prop53
 90
        2
102
RTVSPost2010PropOp53
 70
     1
102
RTVSPost2010Prop54
  1
strokes_ogs.tif
102
RTVSPost2010PropOp54
 70
     1
102
RTVSPost2010Prop55
280
     0
102
RTVSPost2010PropOp55
 70
     1
102
RTVSPost2010Prop56
140
1.0
102
RTVSPost2010PropOp56
 70
     1
102
RTVSPost2010Prop57
140
1.0
102
RTVSPost2010PropOp57
 70
     1
  0
XRECORD
  5
40B
102
{ACAD_REACTORS
330
40A
102
}
330
40A
100
AcDbXrecord
280
     1
102
RTVSPost2010Prop28
280
     0
102
RTVSPost2010PropOp28
 70
     0
102
RTVSPost2010Prop29
280
     1
102
RTVSPost2010PropOp29
 70
     0
102
RTVSPost2010Prop30
280
     1
102
RTVSPost2010PropOp30
 70
     0
102
RTVSPost2010Prop31
280
     0
102
RTVSPost2010PropOp31
 70
     0
102
RTVSPost2010Prop32
280
     0
102
RTVSPost2010PropOp32
 70
     0
102
RTVSPost2010Prop33
280
     0
102
RTVSPost2010PropOp33
 70
     0
102
RTVSPost2010Prop34
280
     0
102
RTVSPost2010PropOp34
 70
     0
102
RTVSPost2010Prop35
280
     0
102
RTVSPost2010PropOp35
 70
     0
102
RTVSPost2010Prop36
280
     0
102
RTVSPost2010PropOp36
 70
     0
102
RTVSPost2010Prop37
 90
       50
102
RTVSPost2010PropOp37
 70
     0
102
RTVSPost2010Prop38
140
0.0
102
RTVSPost2010PropOp38
 70
     0
102
RTVSPost2010Prop39
140
1.0
102
RTVSPost2010PropOp39
 70
     0
102
RTVSPost2010Prop40
 90
        0
102
RTVSPost2010PropOp40
 70
     0
102
RTVSPost2010Prop41ColorIndex
 90
       18
102
RTVSPost2010Prop41ColorRGB
 90
        0
102
RTVSPost2010PropOp41
 70
     0
102
RTVSPost2010Prop42
 90
       50
102
RTVSPost2010PropOp42
 70
     0
102
RTVSPost2010Prop43
 90
        3
102
RTVSPost2010PropOp43
 70
     0
102
RTVSPost2010Prop44ColorIndex
 90
        5
102
RTVSPost2010Prop44ColorRGB
 90
      255
102
RTVSPost2010PropOp44
 70
     0
102
RTVSPost2010Prop45
280
     0
102
RTVSPost2010PropOp45
 70
     0
102
RTVSPost2010Prop46
 90
       50
102
RTVSPost2010PropOp46
 70
     0
102
RTVSPost2010Prop47
 90
       50
102
RTVSPost2010PropOp47
 70
     0
102
RTVSPost2010Prop48
 90
       50
102
RTVSPost2010PropOp48
 70
     0
102
RTVSPost2010Prop49
280
     0
102
RTVSPost2010PropOp49
 70
     0
102
RTVSPost2010Prop50
 90
       50
102
RTVSPost2010PropOp50
 70
     0
102
RTVSPost2010Prop51ColorIndex
 90
      256
102
RTVSPost2010Prop51ColorRGB
 90
-16777216
102
RTVSPost2010PropOp51
 70
     0
102
RTVSPost2010Prop52
140
1.0
102
RTVSPost2010PropOp52
 70
     0
102
RTVSPost2010Prop53
 90
        2
102
RTVSPost2010PropOp53
 70
     0
102
RTVSPost2010Prop54
  1
strokes_ogs.tif
102
RTVSPost2010PropOp54
 70
     0
102
RTVSPost2010Prop55
280
     0
102
RTVSPost2010PropOp55
 70
     0
102
RTVSPost2010Prop56
140
1.0
102
RTVSPost2010PropOp56
 70
     0
102
RTVSPost2010Prop57
140
1.0
102
RTVSPost2010PropOp57
 70
     0
  0
XRECORD
  5
3F9
102
{ACAD_REACTORS
330
3F8
102
}
330
3F8
100
AcDbXrecord
280
     1
102
RTVSPost2010Prop28
280
     0
102
RTVSPost2010PropOp28
 70
     1
102
RTVSPost2010Prop29
280
     1
102
RTVSPost2010PropOp29
 70
     1
102
RTVSPost2010Prop30
280
     1
102
RTVSPost2010PropOp30
 70
     1
102
RTVSPost2010Prop31
280
     0
102
RTVSPost2010PropOp31
 70
     1
102
RTVSPost2010Prop32
280
     0
102
RTVSPost2010PropOp32
 70
     1
102
RTVSPost2010Prop33
280
     0
102
RTVSPost2010PropOp33
 70
     1
102
RTVSPost2010Prop34
280
     0
102
RTVSPost2010PropOp34
 70
     1
102
RTVSPost2010Prop35
280
     0
102
RTVSPost2010PropOp35
 70
     1
102
RTVSPost2010Prop36
280
     0
102
RTVSPost2010PropOp36
 70
     1
102
RTVSPost2010Prop37
 90
       50
102
RTVSPost2010PropOp37
 70
     1
102
RTVSPost2010Prop38
140
0.0
102
RTVSPost2010PropOp38
 70
     1
102
RTVSPost2010Prop39
140
1.0
102
RTVSPost2010PropOp39
 70
     1
102
RTVSPost2010Prop40
 90
        0
102
RTVSPost2010PropOp40
 70
     1
102
RTVSPost2010Prop41ColorIndex
 90
       18
102
RTVSPost2010Prop41ColorRGB
 90
        0
102
RTVSPost2010PropOp41
 70
     1
102
RTVSPost2010Prop42
 90
       50
102
RTVSPost2010PropOp42
 70
     1
102
RTVSPost2010Prop43
 90
        3
102
RTVSPost2010PropOp43
 70
     1
102
RTVSPost2010Prop44ColorIndex
 90
        5
102
RTVSPost2010Prop44ColorRGB
 90
      255
102
RTVSPost2010PropOp44
 70
     1
102
RTVSPost2010Prop45
280
     0
102
RTVSPost2010PropOp45
 70
     1
102
RTVSPost2010Prop46
 90
       50
102
RTVSPost2010PropOp46
 70
     1
102
RTVSPost2010Prop47
 90
       50
102
RTVSPost2010PropOp47
 70
     1
102
RTVSPost2010Prop48
 90
       50
102
RTVSPost2010PropOp48
 70
     1
102
RTVSPost2010Prop49
280
     0
102
RTVSPost2010PropOp49
 70
     1
102
RTVSPost2010Prop50
 90
       50
102
RTVSPost2010PropOp50
 70
     1
102
RTVSPost2010Prop51ColorIndex
 90
      256
102
RTVSPost2010Prop51ColorRGB
 90
-16777216
102
RTVSPost2010PropOp51
 70
     0
102
RTVSPost2010Prop52
140
1.0
102
RTVSPost2010PropOp52
 70
     0
102
RTVSPost2010Prop53
 90
        2
102
RTVSPost2010PropOp53
 70
     1
102
RTVSPost2010Prop54
  1
strokes_ogs.tif
102
RTVSPost2010PropOp54
 70
     1
102
RTVSPost2010Prop55
280
     0
102
RTVSPost2010PropOp55
 70
     1
102
RTVSPost2010Prop56
140
1.0
102
RTVSPost2010PropOp56
 70
     1
102
RTVSPost2010Prop57
140
1.0
102
RTVSPost2010PropOp57
 70
     1
  0
XRECORD
  5
3DD
102
{ACAD_REACTORS
330
3DC
102
}
330
3DC
100
AcDbXrecord
280
     1
102
RTVSPost2010Prop28
280
     0
102
RTVSPost2010PropOp28
 70
     1
102
RTVSPost2010Prop29
280
     1
102
RTVSPost2010PropOp29
 70
     1
102
RTVSPost2010Prop30
280
     1
102
RTVSPost2010PropOp30
 70
     1
102
RTVSPost2010Prop31
280
     0
102
RTVSPost2010PropOp31
 70
     1
102
RTVSPost2010Prop32
280
     0
102
RTVSPost2010PropOp32
 70
     1
102
RTVSPost2010Prop33
280
     0
102
RTVSPost2010PropOp33
 70
     1
102
RTVSPost2010Prop34
280
     0
102
RTVSPost2010PropOp34
 70
     1
102
RTVSPost2010Prop35
280
     0
102
RTVSPost2010PropOp35
 70
     1
102
RTVSPost2010Prop36
280
     0
102
RTVSPost2010PropOp36
 70
     1
102
RTVSPost2010Prop37
 90
       50
102
RTVSPost2010PropOp37
 70
     1
102
RTVSPost2010Prop38
140
0.0
102
RTVSPost2010PropOp38
 70
     1
102
RTVSPost2010Prop39
140
1.0
102
RTVSPost2010PropOp39
 70
     1
102
RTVSPost2010Prop40
 90
        0
102
RTVSPost2010PropOp40
 70
     1
102
RTVSPost2010Prop41ColorIndex
 90
       18
102
RTVSPost2010Prop41ColorRGB
 90
        0
102
RTVSPost2010PropOp41
 70
     1
102
RTVSPost2010Prop42
 90
       50
102
RTVSPost2010PropOp42
 70
     1
102
RTVSPost2010Prop43
 90
        3
102
RTVSPost2010PropOp43
 70
     1
102
RTVSPost2010Prop44ColorIndex
 90
        5
102
RTVSPost2010Prop44ColorRGB
 90
      255
102
RTVSPost2010PropOp44
 70
     1
102
RTVSPost2010Prop45
280
     0
102
RTVSPost2010PropOp45
 70
     1
102
RTVSPost2010Prop46
 90
       50
102
RTVSPost2010PropOp46
 70
     1
102
RTVSPost2010Prop47
 90
       50
102
RTVSPost2010PropOp47
 70
     1
102
RTVSPost2010Prop48
 90
       50
102
RTVSPost2010PropOp48
 70
     1
102
RTVSPost2010Prop49
280
     0
102
RTVSPost2010PropOp49
 70
     1
102
RTVSPost2010Prop50
 90
       50
102
RTVSPost2010PropOp50
 70
     1
102
RTVSPost2010Prop51ColorIndex
 90
      256
102
RTVSPost2010Prop51ColorRGB
 90
-16777216
102
RTVSPost2010PropOp51
 70
     0
102
RTVSPost2010Prop52
140
1.0
102
RTVSPost2010PropOp52
 70
     0
102
RTVSPost2010Prop53
 90
        2
102
RTVSPost2010PropOp53
 70
     1
102
RTVSPost2010Prop54
  1
strokes_ogs.tif
102
RTVSPost2010PropOp54
 70
     1
102
RTVSPost2010Prop55
280
     0
102
RTVSPost2010PropOp55
 70
     1
102
RTVSPost2010Prop56
140
1.0
102
RTVSPost2010PropOp56
 70
     1
102
RTVSPost2010Prop57
140
1.0
102
RTVSPost2010PropOp57
 70
     1
  0
XRECORD
  5
3DF
102
{ACAD_REACTORS
330
3DE
102
}
330
3DE
100
AcDbXrecord
280
     1
102
RTVSPost2010Prop28
280
     0
102
RTVSPost2010PropOp28
 70
     1
102
RTVSPost2010Prop29
280
     1
102
RTVSPost2010PropOp29
 70
     1
102
RTVSPost2010Prop30
280
     1
102
RTVSPost2010PropOp30
 70
     1
102
RTVSPost2010Prop31
280
     0
102
RTVSPost2010PropOp31
 70
     1
102
RTVSPost2010Prop32
280
     0
102
RTVSPost2010PropOp32
 70
     1
102
RTVSPost2010Prop33
280
     0
102
RTVSPost2010PropOp33
 70
     1
102
RTVSPost2010Prop34
280
     0
102
RTVSPost2010PropOp34
 70
     1
102
RTVSPost2010Prop35
280
     0
102
RTVSPost2010PropOp35
 70
     1
102
RTVSPost2010Prop36
280
     0
102
RTVSPost2010PropOp36
 70
     1
102
RTVSPost2010Prop37
 90
       50
102
RTVSPost2010PropOp37
 70
     1
102
RTVSPost2010Prop38
140
0.0
102
RTVSPost2010PropOp38
 70
     1
102
RTVSPost2010Prop39
140
1.0
102
RTVSPost2010PropOp39
 70
     1
102
RTVSPost2010Prop40
 90
        0
102
RTVSPost2010PropOp40
 70
     1
102
RTVSPost2010Prop41ColorIndex
 90
       18
102
RTVSPost2010Prop41ColorRGB
 90
        0
102
RTVSPost2010PropOp41
 70
     1
102
RTVSPost2010Prop42
 90
       50
102
RTVSPost2010PropOp42
 70
     1
102
RTVSPost2010Prop43
 90
        3
102
RTVSPost2010PropOp43
 70
     1
102
RTVSPost2010Prop44ColorIndex
 90
        5
102
RTVSPost2010Prop44ColorRGB
 90
      255
102
RTVSPost2010PropOp44
 70
     1
102
RTVSPost2010Prop45
280
     0
102
RTVSPost2010PropOp45
 70
     1
102
RTVSPost2010Prop46
 90
       50
102
RTVSPost2010PropOp46
 70
     1
102
RTVSPost2010Prop47
 90
       50
102
RTVSPost2010PropOp47
 70
     1
102
RTVSPost2010Prop48
 90
       50
102
RTVSPost2010PropOp48
 70
     1
102
RTVSPost2010Prop49
280
     0
102
RTVSPost2010PropOp49
 70
     1
102
RTVSPost2010Prop50
 90
       50
102
RTVSPost2010PropOp50
 70
     1
102
RTVSPost2010Prop51ColorIndex
 90
      256
102
RTVSPost2010Prop51ColorRGB
 90
-16777216
102
RTVSPost2010PropOp51
 70
     0
102
RTVSPost2010Prop52
140
1.0
102
RTVSPost2010PropOp52
 70
     0
102
RTVSPost2010Prop53
 90
        2
102
RTVSPost2010PropOp53
 70
     1
102
RTVSPost2010Prop54
  1
strokes_ogs.tif
102
RTVSPost2010PropOp54
 70
     1
102
RTVSPost2010Prop55
280
     0
102
RTVSPost2010PropOp55
 70
     1
102
RTVSPost2010Prop56
140
1.0
102
RTVSPost2010PropOp56
 70
     1
102
RTVSPost2010Prop57
140
1.0
102
RTVSPost2010PropOp57
 70
     1
  0
XRECORD
  5
3E1
102
{ACAD_REACTORS
330
3E0
102
}
330
3E0
100
AcDbXrecord
280
     1
102
RTVSPost2010Prop28
280
     0
102
RTVSPost2010PropOp28
 70
     1
102
RTVSPost2010Prop29
280
     1
102
RTVSPost2010PropOp29
 70
     1
102
RTVSPost2010Prop30
280
     1
102
RTVSPost2010PropOp30
 70
     1
102
RTVSPost2010Prop31
280
     0
102
RTVSPost2010PropOp31
 70
     1
102
RTVSPost2010Prop32
280
     0
102
RTVSPost2010PropOp32
 70
     1
102
RTVSPost2010Prop33
280
     0
102
RTVSPost2010PropOp33
 70
     1
102
RTVSPost2010Prop34
280
     0
102
RTVSPost2010PropOp34
 70
     1
102
RTVSPost2010Prop35
280
     0
102
RTVSPost2010PropOp35
 70
     1
102
RTVSPost2010Prop36
280
     0
102
RTVSPost2010PropOp36
 70
     1
102
RTVSPost2010Prop37
 90
       50
102
RTVSPost2010PropOp37
 70
     1
102
RTVSPost2010Prop38
140
0.0
102
RTVSPost2010PropOp38
 70
     1
102
RTVSPost2010Prop39
140
1.0
102
RTVSPost2010PropOp39
 70
     1
102
RTVSPost2010Prop40
 90
        0
102
RTVSPost2010PropOp40
 70
     1
102
RTVSPost2010Prop41ColorIndex
 90
       18
102
RTVSPost2010Prop41ColorRGB
 90
        0
102
RTVSPost2010PropOp41
 70
     1
102
RTVSPost2010Prop42
 90
       50
102
RTVSPost2010PropOp42
 70
     1
102
RTVSPost2010Prop43
 90
        3
102
RTVSPost2010PropOp43
 70
     1
102
RTVSPost2010Prop44ColorIndex
 90
        5
102
RTVSPost2010Prop44ColorRGB
 90
      255
102
RTVSPost2010PropOp44
 70
     1
102
RTVSPost2010Prop45
280
     0
102
RTVSPost2010PropOp45
 70
     1
102
RTVSPost2010Prop46
 90
       50
102
RTVSPost2010PropOp46
 70
     1
102
RTVSPost2010Prop47
 90
       50
102
RTVSPost2010PropOp47
 70
     1
102
RTVSPost2010Prop48
 90
       50
102
RTVSPost2010PropOp48
 70
     1
102
RTVSPost2010Prop49
280
     0
102
RTVSPost2010PropOp49
 70
     1
102
RTVSPost2010Prop50
 90
       50
102
RTVSPost2010PropOp50
 70
     1
102
RTVSPost2010Prop51ColorIndex
 90
      256
102
RTVSPost2010Prop51ColorRGB
 90
-16777216
102
RTVSPost2010PropOp51
 70
     0
102
RTVSPost2010Prop52
140
1.0
102
RTVSPost2010PropOp52
 70
     0
102
RTVSPost2010Prop53
 90
        2
102
RTVSPost2010PropOp53
 70
     1
102
RTVSPost2010Prop54
  1
strokes_ogs.tif
102
RTVSPost2010PropOp54
 70
     1
102
RTVSPost2010Prop55
280
     0
102
RTVSPost2010PropOp55
 70
     1
102
RTVSPost2010Prop56
140
1.0
102
RTVSPost2010PropOp56
 70
     1
102
RTVSPost2010Prop57
140
1.0
102
RTVSPost2010PropOp57
 70
     1
  0
XRECORD
  5
3E3
102
{ACAD_REACTORS
330
3E2
102
}
330
3E2
100
AcDbXrecord
280
     1
102
RTVSPost2010Prop28
280
     0
102
RTVSPost2010PropOp28
 70
     1
102
RTVSPost2010Prop29
280
     1
102
RTVSPost2010PropOp29
 70
     1
102
RTVSPost2010Prop30
280
     1
102
RTVSPost2010PropOp30
 70
     1
102
RTVSPost2010Prop31
280
     0
102
RTVSPost2010PropOp31
 70
     1
102
RTVSPost2010Prop32
280
     0
102
RTVSPost2010PropOp32
 70
     1
102
RTVSPost2010Prop33
280
     0
102
RTVSPost2010PropOp33
 70
     1
102
RTVSPost2010Prop34
280
     0
102
RTVSPost2010PropOp34
 70
     1
102
RTVSPost2010Prop35
280
     0
102
RTVSPost2010PropOp35
 70
     1
102
RTVSPost2010Prop36
280
     0
102
RTVSPost2010PropOp36
 70
     1
102
RTVSPost2010Prop37
 90
       50
102
RTVSPost2010PropOp37
 70
     1
102
RTVSPost2010Prop38
140
0.0
102
RTVSPost2010PropOp38
 70
     1
102
RTVSPost2010Prop39
140
1.0
102
RTVSPost2010PropOp39
 70
     1
102
RTVSPost2010Prop40
 90
        0
102
RTVSPost2010PropOp40
 70
     1
102
RTVSPost2010Prop41ColorIndex
 90
       18
102
RTVSPost2010Prop41ColorRGB
 90
        0
102
RTVSPost2010PropOp41
 70
     1
102
RTVSPost2010Prop42
 90
       50
102
RTVSPost2010PropOp42
 70
     1
102
RTVSPost2010Prop43
 90
        3
102
RTVSPost2010PropOp43
 70
     1
102
RTVSPost2010Prop44ColorIndex
 90
        5
102
RTVSPost2010Prop44ColorRGB
 90
      255
102
RTVSPost2010PropOp44
 70
     1
102
RTVSPost2010Prop45
280
     0
102
RTVSPost2010PropOp45
 70
     1
102
RTVSPost2010Prop46
 90
       50
102
RTVSPost2010PropOp46
 70
     1
102
RTVSPost2010Prop47
 90
       50
102
RTVSPost2010PropOp47
 70
     1
102
RTVSPost2010Prop48
 90
       50
102
RTVSPost2010PropOp48
 70
     1
102
RTVSPost2010Prop49
280
     0
102
RTVSPost2010PropOp49
 70
     1
102
RTVSPost2010Prop50
 90
       50
102
RTVSPost2010PropOp50
 70
     1
102
RTVSPost2010Prop51ColorIndex
 90
      256
102
RTVSPost2010Prop51ColorRGB
 90
-16777216
102
RTVSPost2010PropOp51
 70
     0
102
RTVSPost2010Prop52
140
1.0
102
RTVSPost2010PropOp52
 70
     0
102
RTVSPost2010Prop53
 90
        2
102
RTVSPost2010PropOp53
 70
     1
102
RTVSPost2010Prop54
  1
strokes_ogs.tif
102
RTVSPost2010PropOp54
 70
     1
102
RTVSPost2010Prop55
280
     0
102
RTVSPost2010PropOp55
 70
     1
102
RTVSPost2010Prop56
140
1.0
102
RTVSPost2010PropOp56
 70
     1
102
RTVSPost2010Prop57
140
1.0
102
RTVSPost2010PropOp57
 70
     1
  0
XRECORD
  5
3EB
102
{ACAD_REACTORS
330
3EA
102
}
330
3EA
100
AcDbXrecord
280
     1
102
RTVSPost2010Prop28
280
     0
102
RTVSPost2010PropOp28
 70
     1
102
RTVSPost2010Prop29
280
     1
102
RTVSPost2010PropOp29
 70
     1
102
RTVSPost2010Prop30
280
     1
102
RTVSPost2010PropOp30
 70
     1
102
RTVSPost2010Prop31
280
     0
102
RTVSPost2010PropOp31
 70
     1
102
RTVSPost2010Prop32
280
     0
102
RTVSPost2010PropOp32
 70
     1
102
RTVSPost2010Prop33
280
     0
102
RTVSPost2010PropOp33
 70
     1
102
RTVSPost2010Prop34
280
     0
102
RTVSPost2010PropOp34
 70
     1
102
RTVSPost2010Prop35
280
     0
102
RTVSPost2010PropOp35
 70
     1
102
RTVSPost2010Prop36
280
     0
102
RTVSPost2010PropOp36
 70
     1
102
RTVSPost2010Prop37
 90
       50
102
RTVSPost2010PropOp37
 70
     1
102
RTVSPost2010Prop38
140
0.0
102
RTVSPost2010PropOp38
 70
     1
102
RTVSPost2010Prop39
140
1.0
102
RTVSPost2010PropOp39
 70
     1
102
RTVSPost2010Prop40
 90
        0
102
RTVSPost2010PropOp40
 70
     1
102
RTVSPost2010Prop41ColorIndex
 90
       18
102
RTVSPost2010Prop41ColorRGB
 90
        0
102
RTVSPost2010PropOp41
 70
     1
102
RTVSPost2010Prop42
 90
       50
102
RTVSPost2010PropOp42
 70
     1
102
RTVSPost2010Prop43
 90
        3
102
RTVSPost2010PropOp43
 70
     1
102
RTVSPost2010Prop44ColorIndex
 90
        5
102
RTVSPost2010Prop44ColorRGB
 90
      255
102
RTVSPost2010PropOp44
 70
     1
102
RTVSPost2010Prop45
280
     0
102
RTVSPost2010PropOp45
 70
     1
102
RTVSPost2010Prop46
 90
       50
102
RTVSPost2010PropOp46
 70
     1
102
RTVSPost2010Prop47
 90
       50
102
RTVSPost2010PropOp47
 70
     1
102
RTVSPost2010Prop48
 90
       50
102
RTVSPost2010PropOp48
 70
     1
102
RTVSPost2010Prop49
280
     0
102
RTVSPost2010PropOp49
 70
     1
102
RTVSPost2010Prop50
 90
       50
102
RTVSPost2010PropOp50
 70
     1
102
RTVSPost2010Prop51ColorIndex
 90
      256
102
RTVSPost2010Prop51ColorRGB
 90
-16777216
102
RTVSPost2010PropOp51
 70
     0
102
RTVSPost2010Prop52
140
1.0
102
RTVSPost2010PropOp52
 70
     0
102
RTVSPost2010Prop53
 90
        2
102
RTVSPost2010PropOp53
 70
     1
102
RTVSPost2010Prop54
  1
strokes_ogs.tif
102
RTVSPost2010PropOp54
 70
     1
102
RTVSPost2010Prop55
280
     0
102
RTVSPost2010PropOp55
 70
     1
102
RTVSPost2010Prop56
140
1.0
102
RTVSPost2010PropOp56
 70
     1
102
RTVSPost2010Prop57
140
1.0
102
RTVSPost2010PropOp57
 70
     1
  0
XRECORD
  5
407
102
{ACAD_REACTORS
330
406
102
}
330
406
100
AcDbXrecord
280
     1
102
RTVSPost2010Prop28
280
     0
102
RTVSPost2010PropOp28
 70
     0
102
RTVSPost2010Prop29
280
     1
102
RTVSPost2010PropOp29
 70
     0
102
RTVSPost2010Prop30
280
     1
102
RTVSPost2010PropOp30
 70
     0
102
RTVSPost2010Prop31
280
     0
102
RTVSPost2010PropOp31
 70
     0
102
RTVSPost2010Prop32
280
     0
102
RTVSPost2010PropOp32
 70
     0
102
RTVSPost2010Prop33
280
     0
102
RTVSPost2010PropOp33
 70
     0
102
RTVSPost2010Prop34
280
     0
102
RTVSPost2010PropOp34
 70
     0
102
RTVSPost2010Prop35
280
     0
102
RTVSPost2010PropOp35
 70
     0
102
RTVSPost2010Prop36
280
     0
102
RTVSPost2010PropOp36
 70
     0
102
RTVSPost2010Prop37
 90
       50
102
RTVSPost2010PropOp37
 70
     0
102
RTVSPost2010Prop38
140
0.0
102
RTVSPost2010PropOp38
 70
     0
102
RTVSPost2010Prop39
140
1.0
102
RTVSPost2010PropOp39
 70
     0
102
RTVSPost2010Prop40
 90
        0
102
RTVSPost2010PropOp40
 70
     0
102
RTVSPost2010Prop41ColorIndex
 90
       18
102
RTVSPost2010Prop41ColorRGB
 90
        0
102
RTVSPost2010PropOp41
 70
     0
102
RTVSPost2010Prop42
 90
       50
102
RTVSPost2010PropOp42
 70
     0
102
RTVSPost2010Prop43
 90
        3
102
RTVSPost2010PropOp43
 70
     0
102
RTVSPost2010Prop44ColorIndex
 90
        5
102
RTVSPost2010Prop44ColorRGB
 90
      255
102
RTVSPost2010PropOp44
 70
     0
102
RTVSPost2010Prop45
280
     0
102
RTVSPost2010PropOp45
 70
     0
102
RTVSPost2010Prop46
 90
       50
102
RTVSPost2010PropOp46
 70
     0
102
RTVSPost2010Prop47
 90
       50
102
RTVSPost2010PropOp47
 70
     0
102
RTVSPost2010Prop48
 90
       50
102
RTVSPost2010PropOp48
 70
     0
102
RTVSPost2010Prop49
280
     0
102
RTVSPost2010PropOp49
 70
     0
102
RTVSPost2010Prop50
 90
       50
102
RTVSPost2010PropOp50
 70
     0
102
RTVSPost2010Prop51ColorIndex
 90
      256
102
RTVSPost2010Prop51ColorRGB
 90
-16777216
102
RTVSPost2010PropOp51
 70
     0
102
RTVSPost2010Prop52
140
1.0
102
RTVSPost2010PropOp52
 70
     0
102
RTVSPost2010Prop53
 90
        2
102
RTVSPost2010PropOp53
 70
     0
102
RTVSPost2010Prop54
  1
strokes_ogs.tif
102
RTVSPost2010PropOp54
 70
     0
102
RTVSPost2010Prop55
280
     0
102
RTVSPost2010PropOp55
 70
     0
102
RTVSPost2010Prop56
140
1.0
102
RTVSPost2010PropOp56
 70
     0
102
RTVSPost2010Prop57
140
1.0
102
RTVSPost2010PropOp57
 70
     0
  0
XRECORD
  5
3F7
102
{ACAD_REACTORS
330
3F6
102
}
330
3F6
100
AcDbXrecord
280
     1
102
RTVSPost2010Prop28
280
     0
102
RTVSPost2010PropOp28
 70
     1
102
RTVSPost2010Prop29
280
     1
102
RTVSPost2010PropOp29
 70
     1
102
RTVSPost2010Prop30
280
     1
102
RTVSPost2010PropOp30
 70
     1
102
RTVSPost2010Prop31
280
     0
102
RTVSPost2010PropOp31
 70
     1
102
RTVSPost2010Prop32
280
     0
102
RTVSPost2010PropOp32
 70
     1
102
RTVSPost2010Prop33
280
     0
102
RTVSPost2010PropOp33
 70
     1
102
RTVSPost2010Prop34
280
     0
102
RTVSPost2010PropOp34
 70
     1
102
RTVSPost2010Prop35
280
     0
102
RTVSPost2010PropOp35
 70
     1
102
RTVSPost2010Prop36
280
     0
102
RTVSPost2010PropOp36
 70
     1
102
RTVSPost2010Prop37
 90
       50
102
RTVSPost2010PropOp37
 70
     1
102
RTVSPost2010Prop38
140
0.0
102
RTVSPost2010PropOp38
 70
     1
102
RTVSPost2010Prop39
140
1.0
102
RTVSPost2010PropOp39
 70
     1
102
RTVSPost2010Prop40
 90
        0
102
RTVSPost2010PropOp40
 70
     1
102
RTVSPost2010Prop41ColorIndex
 90
       18
102
RTVSPost2010Prop41ColorRGB
 90
        0
102
RTVSPost2010PropOp41
 70
     1
102
RTVSPost2010Prop42
 90
       50
102
RTVSPost2010PropOp42
 70
     1
102
RTVSPost2010Prop43
 90
        3
102
RTVSPost2010PropOp43
 70
     1
102
RTVSPost2010Prop44ColorIndex
 90
        5
102
RTVSPost2010Prop44ColorRGB
 90
      255
102
RTVSPost2010PropOp44
 70
     1
102
RTVSPost2010Prop45
280
     0
102
RTVSPost2010PropOp45
 70
     1
102
RTVSPost2010Prop46
 90
       50
102
RTVSPost2010PropOp46
 70
     1
102
RTVSPost2010Prop47
 90
       50
102
RTVSPost2010PropOp47
 70
     1
102
RTVSPost2010Prop48
 90
       50
102
RTVSPost2010PropOp48
 70
     1
102
RTVSPost2010Prop49
280
     0
102
RTVSPost2010PropOp49
 70
     1
102
RTVSPost2010Prop50
 90
       50
102
RTVSPost2010PropOp50
 70
     1
102
RTVSPost2010Prop51ColorIndex
 90
      256
102
RTVSPost2010Prop51ColorRGB
 90
-16777216
102
RTVSPost2010PropOp51
 70
     0
102
RTVSPost2010Prop52
140
1.0
102
RTVSPost2010PropOp52
 70
     0
102
RTVSPost2010Prop53
 90
        2
102
RTVSPost2010PropOp53
 70
     1
102
RTVSPost2010Prop54
  1
strokes_ogs.tif
102
RTVSPost2010PropOp54
 70
     1
102
RTVSPost2010Prop55
280
     0
102
RTVSPost2010PropOp55
 70
     1
102
RTVSPost2010Prop56
140
1.0
102
RTVSPost2010PropOp56
 70
     1
102
RTVSPost2010Prop57
140
1.0
102
RTVSPost2010PropOp57
 70
     1
  0
XRECORD
  5
409
102
{ACAD_REACTORS
330
408
102
}
330
408
100
AcDbXrecord
280
     1
102
RTVSPost2010Prop28
280
     0
102
RTVSPost2010PropOp28
 70
     0
102
RTVSPost2010Prop29
280
     1
102
RTVSPost2010PropOp29
 70
     0
102
RTVSPost2010Prop30
280
     1
102
RTVSPost2010PropOp30
 70
     0
102
RTVSPost2010Prop31
280
     0
102
RTVSPost2010PropOp31
 70
     0
102
RTVSPost2010Prop32
280
     0
102
RTVSPost2010PropOp32
 70
     0
102
RTVSPost2010Prop33
280
     0
102
RTVSPost2010PropOp33
 70
     0
102
RTVSPost2010Prop34
280
     0
102
RTVSPost2010PropOp34
 70
     0
102
RTVSPost2010Prop35
280
     0
102
RTVSPost2010PropOp35
 70
     0
102
RTVSPost2010Prop36
280
     0
102
RTVSPost2010PropOp36
 70
     0
102
RTVSPost2010Prop37
 90
       50
102
RTVSPost2010PropOp37
 70
     0
102
RTVSPost2010Prop38
140
0.0
102
RTVSPost2010PropOp38
 70
     0
102
RTVSPost2010Prop39
140
1.0
102
RTVSPost2010PropOp39
 70
     0
102
RTVSPost2010Prop40
 90
        0
102
RTVSPost2010PropOp40
 70
     0
102
RTVSPost2010Prop41ColorIndex
 90
       18
102
RTVSPost2010Prop41ColorRGB
 90
        0
102
RTVSPost2010PropOp41
 70
     0
102
RTVSPost2010Prop42
 90
       50
102
RTVSPost2010PropOp42
 70
     0
102
RTVSPost2010Prop43
 90
        3
102
RTVSPost2010PropOp43
 70
     0
102
RTVSPost2010Prop44ColorIndex
 90
        5
102
RTVSPost2010Prop44ColorRGB
 90
      255
102
RTVSPost2010PropOp44
 70
     0
102
RTVSPost2010Prop45
280
     0
102
RTVSPost2010PropOp45
 70
     0
102
RTVSPost2010Prop46
 90
       50
102
RTVSPost2010PropOp46
 70
     0
102
RTVSPost2010Prop47
 90
       50
102
RTVSPost2010PropOp47
 70
     0
102
RTVSPost2010Prop48
 90
       50
102
RTVSPost2010PropOp48
 70
     0
102
RTVSPost2010Prop49
280
     0
102
RTVSPost2010PropOp49
 70
     0
102
RTVSPost2010Prop50
 90
       50
102
RTVSPost2010PropOp50
 70
     0
102
RTVSPost2010Prop51ColorIndex
 90
      256
102
RTVSPost2010Prop51ColorRGB
 90
-16777216
102
RTVSPost2010PropOp51
 70
     0
102
RTVSPost2010Prop52
140
1.0
102
RTVSPost2010PropOp52
 70
     0
102
RTVSPost2010Prop53
 90
        2
102
RTVSPost2010PropOp53
 70
     0
102
RTVSPost2010Prop54
  1
strokes_ogs.tif
102
RTVSPost2010PropOp54
 70
     0
102
RTVSPost2010Prop55
280
     0
102
RTVSPost2010PropOp55
 70
     0
102
RTVSPost2010Prop56
140
1.0
102
RTVSPost2010PropOp56
 70
     0
102
RTVSPost2010Prop57
140
1.0
102
RTVSPost2010PropOp57
 70
     0
  0
XRECORD
  5
3EF
102
{ACAD_REACTORS
330
3EE
102
}
330
3EE
100
AcDbXrecord
280
     1
102
RTVSPost2010Prop28
280
     0
102
RTVSPost2010PropOp28
 70
     1
102
RTVSPost2010Prop29
280
     1
102
RTVSPost2010PropOp29
 70
     1
102
RTVSPost2010Prop30
280
     1
102
RTVSPost2010PropOp30
 70
     1
102
RTVSPost2010Prop31
280
     0
102
RTVSPost2010PropOp31
 70
     1
102
RTVSPost2010Prop32
280
     0
102
RTVSPost2010PropOp32
 70
     1
102
RTVSPost2010Prop33
280
     0
102
RTVSPost2010PropOp33
 70
     1
102
RTVSPost2010Prop34
280
     0
102
RTVSPost2010PropOp34
 70
     1
102
RTVSPost2010Prop35
280
     0
102
RTVSPost2010PropOp35
 70
     1
102
RTVSPost2010Prop36
280
     0
102
RTVSPost2010PropOp36
 70
     1
102
RTVSPost2010Prop37
 90
       50
102
RTVSPost2010PropOp37
 70
     1
102
RTVSPost2010Prop38
140
0.0
102
RTVSPost2010PropOp38
 70
     1
102
RTVSPost2010Prop39
140
1.0
102
RTVSPost2010PropOp39
 70
     1
102
RTVSPost2010Prop40
 90
        0
102
RTVSPost2010PropOp40
 70
     1
102
RTVSPost2010Prop41ColorIndex
 90
       18
102
RTVSPost2010Prop41ColorRGB
 90
        0
102
RTVSPost2010PropOp41
 70
     1
102
RTVSPost2010Prop42
 90
       50
102
RTVSPost2010PropOp42
 70
     1
102
RTVSPost2010Prop43
 90
        3
102
RTVSPost2010PropOp43
 70
     1
102
RTVSPost2010Prop44ColorIndex
 90
        5
102
RTVSPost2010Prop44ColorRGB
 90
      255
102
RTVSPost2010PropOp44
 70
     1
102
RTVSPost2010Prop45
280
     0
102
RTVSPost2010PropOp45
 70
     1
102
RTVSPost2010Prop46
 90
       50
102
RTVSPost2010PropOp46
 70
     1
102
RTVSPost2010Prop47
 90
       50
102
RTVSPost2010PropOp47
 70
     1
102
RTVSPost2010Prop48
 90
       50
102
RTVSPost2010PropOp48
 70
     1
102
RTVSPost2010Prop49
280
     0
102
RTVSPost2010PropOp49
 70
     1
102
RTVSPost2010Prop50
 90
       50
102
RTVSPost2010PropOp50
 70
     1
102
RTVSPost2010Prop51ColorIndex
 90
      256
102
RTVSPost2010Prop51ColorRGB
 90
-16777216
102
RTVSPost2010PropOp51
 70
     0
102
RTVSPost2010Prop52
140
1.0
102
RTVSPost2010PropOp52
 70
     0
102
RTVSPost2010Prop53
 90
        2
102
RTVSPost2010PropOp53
 70
     1
102
RTVSPost2010Prop54
  1
strokes_ogs.tif
102
RTVSPost2010PropOp54
 70
     1
102
RTVSPost2010Prop55
280
     0
102
RTVSPost2010PropOp55
 70
     1
102
RTVSPost2010Prop56
140
1.0
102
RTVSPost2010PropOp56
 70
     1
102
RTVSPost2010Prop57
140
1.0
102
RTVSPost2010PropOp57
 70
     1
  0
XRECORD
  5
405
102
{ACAD_REACTORS
330
404
102
}
330
404
100
AcDbXrecord
280
     1
102
RTVSPost2010Prop28
280
     0
102
RTVSPost2010PropOp28
 70
     1
102
RTVSPost2010Prop29
280
     1
102
RTVSPost2010PropOp29
 70
     1
102
RTVSPost2010Prop30
280
     1
102
RTVSPost2010PropOp30
 70
     1
102
RTVSPost2010Prop31
280
     0
102
RTVSPost2010PropOp31
 70
     1
102
RTVSPost2010Prop32
280
     0
102
RTVSPost2010PropOp32
 70
     1
102
RTVSPost2010Prop33
280
     0
102
RTVSPost2010PropOp33
 70
     1
102
RTVSPost2010Prop34
280
     0
102
RTVSPost2010PropOp34
 70
     1
102
RTVSPost2010Prop35
280
     0
102
RTVSPost2010PropOp35
 70
     1
102
RTVSPost2010Prop36
280
     0
102
RTVSPost2010PropOp36
 70
     1
102
RTVSPost2010Prop37
 90
       50
102
RTVSPost2010PropOp37
 70
     1
102
RTVSPost2010Prop38
140
0.0
102
RTVSPost2010PropOp38
 70
     1
102
RTVSPost2010Prop39
140
1.0
102
RTVSPost2010PropOp39
 70
     1
102
RTVSPost2010Prop40
 90
        0
102
RTVSPost2010PropOp40
 70
     1
102
RTVSPost2010Prop41ColorIndex
 90
       18
102
RTVSPost2010Prop41ColorRGB
 90
        0
102
RTVSPost2010PropOp41
 70
     1
102
RTVSPost2010Prop42
 90
       50
102
RTVSPost2010PropOp42
 70
     1
102
RTVSPost2010Prop43
 90
        3
102
RTVSPost2010PropOp43
 70
     1
102
RTVSPost2010Prop44ColorIndex
 90
        5
102
RTVSPost2010Prop44ColorRGB
 90
      255
102
RTVSPost2010PropOp44
 70
     1
102
RTVSPost2010Prop45
280
     0
102
RTVSPost2010PropOp45
 70
     1
102
RTVSPost2010Prop46
 90
       50
102
RTVSPost2010PropOp46
 70
     1
102
RTVSPost2010Prop47
 90
       50
102
RTVSPost2010PropOp47
 70
     1
102
RTVSPost2010Prop48
 90
       50
102
RTVSPost2010PropOp48
 70
     1
102
RTVSPost2010Prop49
280
     0
102
RTVSPost2010PropOp49
 70
     1
102
RTVSPost2010Prop50
 90
       50
102
RTVSPost2010PropOp50
 70
     1
102
RTVSPost2010Prop51ColorIndex
 90
      256
102
RTVSPost2010Prop51ColorRGB
 90
-16777216
102
RTVSPost2010PropOp51
 70
     0
102
RTVSPost2010Prop52
140
1.0
102
RTVSPost2010PropOp52
 70
     0
102
RTVSPost2010Prop53
 90
        2
102
RTVSPost2010PropOp53
 70
     1
102
RTVSPost2010Prop54
  1
strokes_ogs.tif
102
RTVSPost2010PropOp54
 70
     1
102
RTVSPost2010Prop55
280
     0
102
RTVSPost2010PropOp55
 70
     1
102
RTVSPost2010Prop56
140
1.0
102
RTVSPost2010PropOp56
 70
     1
102
RTVSPost2010Prop57
140
1.0
102
RTVSPost2010PropOp57
 70
     1
  0
XRECORD
  5
403
102
{ACAD_REACTORS
330
402
102
}
330
402
100
AcDbXrecord
280
     1
102
RTVSPost2010Prop28
280
     0
102
RTVSPost2010PropOp28
 70
     1
102
RTVSPost2010Prop29
280
     1
102
RTVSPost2010PropOp29
 70
     1
102
RTVSPost2010Prop30
280
     1
102
RTVSPost2010PropOp30
 70
     1
102
RTVSPost2010Prop31
280
     0
102
RTVSPost2010PropOp31
 70
     1
102
RTVSPost2010Prop32
280
     0
102
RTVSPost2010PropOp32
 70
     1
102
RTVSPost2010Prop33
280
     0
102
RTVSPost2010PropOp33
 70
     1
102
RTVSPost2010Prop34
280
     0
102
RTVSPost2010PropOp34
 70
     1
102
RTVSPost2010Prop35
280
     0
102
RTVSPost2010PropOp35
 70
     1
102
RTVSPost2010Prop36
280
     0
102
RTVSPost2010PropOp36
 70
     1
102
RTVSPost2010Prop37
 90
       50
102
RTVSPost2010PropOp37
 70
     1
102
RTVSPost2010Prop38
140
0.0
102
RTVSPost2010PropOp38
 70
     1
102
RTVSPost2010Prop39
140
1.0
102
RTVSPost2010PropOp39
 70
     1
102
RTVSPost2010Prop40
 90
        0
102
RTVSPost2010PropOp40
 70
     1
102
RTVSPost2010Prop41ColorIndex
 90
       18
102
RTVSPost2010Prop41ColorRGB
 90
        0
102
RTVSPost2010PropOp41
 70
     1
102
RTVSPost2010Prop42
 90
       50
102
RTVSPost2010PropOp42
 70
     1
102
RTVSPost2010Prop43
 90
        3
102
RTVSPost2010PropOp43
 70
     1
102
RTVSPost2010Prop44ColorIndex
 90
        5
102
RTVSPost2010Prop44ColorRGB
 90
      255
102
RTVSPost2010PropOp44
 70
     1
102
RTVSPost2010Prop45
280
     0
102
RTVSPost2010PropOp45
 70
     1
102
RTVSPost2010Prop46
 90
       50
102
RTVSPost2010PropOp46
 70
     1
102
RTVSPost2010Prop47
 90
       50
102
RTVSPost2010PropOp47
 70
     1
102
RTVSPost2010Prop48
 90
       50
102
RTVSPost2010PropOp48
 70
     1
102
RTVSPost2010Prop49
280
     0
102
RTVSPost2010PropOp49
 70
     1
102
RTVSPost2010Prop50
 90
       50
102
RTVSPost2010PropOp50
 70
     1
102
RTVSPost2010Prop51ColorIndex
 90
      256
102
RTVSPost2010Prop51ColorRGB
 90
-16777216
102
RTVSPost2010PropOp51
 70
     0
102
RTVSPost2010Prop52
140
1.0
102
RTVSPost2010PropOp52
 70
     0
102
RTVSPost2010Prop53
 90
        2
102
RTVSPost2010PropOp53
 70
     1
102
RTVSPost2010Prop54
  1
strokes_ogs.tif
102
RTVSPost2010PropOp54
 70
     1
102
RTVSPost2010Prop55
280
     0
102
RTVSPost2010PropOp55
 70
     1
102
RTVSPost2010Prop56
140
1.0
102
RTVSPost2010PropOp56
 70
     1
102
RTVSPost2010Prop57
140
1.0
102
RTVSPost2010PropOp57
 70
     1
  0
XRECORD
  5
3FD
102
{ACAD_REACTORS
330
3FC
102
}
330
3FC
100
AcDbXrecord
280
     1
102
RTVSPost2010Prop28
280
     0
102
RTVSPost2010PropOp28
 70
     1
102
RTVSPost2010Prop29
280
     1
102
RTVSPost2010PropOp29
 70
     1
102
RTVSPost2010Prop30
280
     1
102
RTVSPost2010PropOp30
 70
     1
102
RTVSPost2010Prop31
280
     0
102
RTVSPost2010PropOp31
 70
     1
102
RTVSPost2010Prop32
280
     0
102
RTVSPost2010PropOp32
 70
     1
102
RTVSPost2010Prop33
280
     0
102
RTVSPost2010PropOp33
 70
     1
102
RTVSPost2010Prop34
280
     0
102
RTVSPost2010PropOp34
 70
     1
102
RTVSPost2010Prop35
280
     0
102
RTVSPost2010PropOp35
 70
     1
102
RTVSPost2010Prop36
280
     0
102
RTVSPost2010PropOp36
 70
     1
102
RTVSPost2010Prop37
 90
       50
102
RTVSPost2010PropOp37
 70
     1
102
RTVSPost2010Prop38
140
0.0
102
RTVSPost2010PropOp38
 70
     1
102
RTVSPost2010Prop39
140
1.0
102
RTVSPost2010PropOp39
 70
     1
102
RTVSPost2010Prop40
 90
        0
102
RTVSPost2010PropOp40
 70
     1
102
RTVSPost2010Prop41ColorIndex
 90
       18
102
RTVSPost2010Prop41ColorRGB
 90
        0
102
RTVSPost2010PropOp41
 70
     1
102
RTVSPost2010Prop42
 90
       50
102
RTVSPost2010PropOp42
 70
     1
102
RTVSPost2010Prop43
 90
        3
102
RTVSPost2010PropOp43
 70
     1
102
RTVSPost2010Prop44ColorIndex
 90
        5
102
RTVSPost2010Prop44ColorRGB
 90
      255
102
RTVSPost2010PropOp44
 70
     1
102
RTVSPost2010Prop45
280
     0
102
RTVSPost2010PropOp45
 70
     1
102
RTVSPost2010Prop46
 90
       50
102
RTVSPost2010PropOp46
 70
     1
102
RTVSPost2010Prop47
 90
       50
102
RTVSPost2010PropOp47
 70
     1
102
RTVSPost2010Prop48
 90
       50
102
RTVSPost2010PropOp48
 70
     1
102
RTVSPost2010Prop49
280
     0
102
RTVSPost2010PropOp49
 70
     1
102
RTVSPost2010Prop50
 90
       50
102
RTVSPost2010PropOp50
 70
     1
102
RTVSPost2010Prop51ColorIndex
 90
      256
102
RTVSPost2010Prop51ColorRGB
 90
-16777216
102
RTVSPost2010PropOp51
 70
     0
102
RTVSPost2010Prop52
140
1.0
102
RTVSPost2010PropOp52
 70
     0
102
RTVSPost2010Prop53
 90
        2
102
RTVSPost2010PropOp53
 70
     1
102
RTVSPost2010Prop54
  1
strokes_ogs.tif
102
RTVSPost2010PropOp54
 70
     1
102
RTVSPost2010Prop55
280
     0
102
RTVSPost2010PropOp55
 70
     1
102
RTVSPost2010Prop56
140
1.0
102
RTVSPost2010PropOp56
 70
     1
102
RTVSPost2010Prop57
140
1.0
102
RTVSPost2010PropOp57
 70
     1
  0
XRECORD
  5
3FF
102
{ACAD_REACTORS
330
3FE
102
}
330
3FE
100
AcDbXrecord
280
     1
102
RTVSPost2010Prop28
280
     0
102
RTVSPost2010PropOp28
 70
     1
102
RTVSPost2010Prop29
280
     1
102
RTVSPost2010PropOp29
 70
     1
102
RTVSPost2010Prop30
280
     1
102
RTVSPost2010PropOp30
 70
     1
102
RTVSPost2010Prop31
280
     0
102
RTVSPost2010PropOp31
 70
     1
102
RTVSPost2010Prop32
280
     0
102
RTVSPost2010PropOp32
 70
     1
102
RTVSPost2010Prop33
280
     0
102
RTVSPost2010PropOp33
 70
     1
102
RTVSPost2010Prop34
280
     0
102
RTVSPost2010PropOp34
 70
     1
102
RTVSPost2010Prop35
280
     0
102
RTVSPost2010PropOp35
 70
     1
102
RTVSPost2010Prop36
280
     0
102
RTVSPost2010PropOp36
 70
     1
102
RTVSPost2010Prop37
 90
       50
102
RTVSPost2010PropOp37
 70
     1
102
RTVSPost2010Prop38
140
0.0
102
RTVSPost2010PropOp38
 70
     1
102
RTVSPost2010Prop39
140
1.0
102
RTVSPost2010PropOp39
 70
     1
102
RTVSPost2010Prop40
 90
        0
102
RTVSPost2010PropOp40
 70
     1
102
RTVSPost2010Prop41ColorIndex
 90
       18
102
RTVSPost2010Prop41ColorRGB
 90
        0
102
RTVSPost2010PropOp41
 70
     1
102
RTVSPost2010Prop42
 90
       50
102
RTVSPost2010PropOp42
 70
     1
102
RTVSPost2010Prop43
 90
        3
102
RTVSPost2010PropOp43
 70
     1
102
RTVSPost2010Prop44ColorIndex
 90
        5
102
RTVSPost2010Prop44ColorRGB
 90
      255
102
RTVSPost2010PropOp44
 70
     1
102
RTVSPost2010Prop45
280
     0
102
RTVSPost2010PropOp45
 70
     1
102
RTVSPost2010Prop46
 90
       50
102
RTVSPost2010PropOp46
 70
     1
102
RTVSPost2010Prop47
 90
       50
102
RTVSPost2010PropOp47
 70
     1
102
RTVSPost2010Prop48
 90
       50
102
RTVSPost2010PropOp48
 70
     1
102
RTVSPost2010Prop49
280
     0
102
RTVSPost2010PropOp49
 70
     1
102
RTVSPost2010Prop50
 90
       50
102
RTVSPost2010PropOp50
 70
     1
102
RTVSPost2010Prop51ColorIndex
 90
      256
102
RTVSPost2010Prop51ColorRGB
 90
-16777216
102
RTVSPost2010PropOp51
 70
     0
102
RTVSPost2010Prop52
140
1.0
102
RTVSPost2010PropOp52
 70
     0
102
RTVSPost2010Prop53
 90
        2
102
RTVSPost2010PropOp53
 70
     1
102
RTVSPost2010Prop54
  1
strokes_ogs.tif
102
RTVSPost2010PropOp54
 70
     1
102
RTVSPost2010Prop55
280
     0
102
RTVSPost2010PropOp55
 70
     1
102
RTVSPost2010Prop56
140
1.0
102
RTVSPost2010PropOp56
 70
     1
102
RTVSPost2010Prop57
140
1.0
102
RTVSPost2010PropOp57
 70
     1
  0
XRECORD
  5
3F5
102
{ACAD_REACTORS
330
3F4
102
}
330
3F4
100
AcDbXrecord
280
     1
102
RTVSPost2010Prop28
280
     0
102
RTVSPost2010PropOp28
 70
     1
102
RTVSPost2010Prop29
280
     1
102
RTVSPost2010PropOp29
 70
     1
102
RTVSPost2010Prop30
280
     1
102
RTVSPost2010PropOp30
 70
     1
102
RTVSPost2010Prop31
280
     0
102
RTVSPost2010PropOp31
 70
     1
102
RTVSPost2010Prop32
280
     0
102
RTVSPost2010PropOp32
 70
     1
102
RTVSPost2010Prop33
280
     0
102
RTVSPost2010PropOp33
 70
     1
102
RTVSPost2010Prop34
280
     0
102
RTVSPost2010PropOp34
 70
     1
102
RTVSPost2010Prop35
280
     0
102
RTVSPost2010PropOp35
 70
     1
102
RTVSPost2010Prop36
280
     0
102
RTVSPost2010PropOp36
 70
     1
102
RTVSPost2010Prop37
 90
       50
102
RTVSPost2010PropOp37
 70
     1
102
RTVSPost2010Prop38
140
0.0
102
RTVSPost2010PropOp38
 70
     1
102
RTVSPost2010Prop39
140
1.0
102
RTVSPost2010PropOp39
 70
     1
102
RTVSPost2010Prop40
 90
        0
102
RTVSPost2010PropOp40
 70
     1
102
RTVSPost2010Prop41ColorIndex
 90
       18
102
RTVSPost2010Prop41ColorRGB
 90
        0
102
RTVSPost2010PropOp41
 70
     1
102
RTVSPost2010Prop42
 90
       50
102
RTVSPost2010PropOp42
 70
     1
102
RTVSPost2010Prop43
 90
        3
102
RTVSPost2010PropOp43
 70
     1
102
RTVSPost2010Prop44ColorIndex
 90
        5
102
RTVSPost2010Prop44ColorRGB
 90
      255
102
RTVSPost2010PropOp44
 70
     1
102
RTVSPost2010Prop45
280
     0
102
RTVSPost2010PropOp45
 70
     1
102
RTVSPost2010Prop46
 90
       50
102
RTVSPost2010PropOp46
 70
     1
102
RTVSPost2010Prop47
 90
       50
102
RTVSPost2010PropOp47
 70
     1
102
RTVSPost2010Prop48
 90
       50
102
RTVSPost2010PropOp48
 70
     1
102
RTVSPost2010Prop49
280
     0
102
RTVSPost2010PropOp49
 70
     1
102
RTVSPost2010Prop50
 90
       50
102
RTVSPost2010PropOp50
 70
     1
102
RTVSPost2010Prop51ColorIndex
 90
      256
102
RTVSPost2010Prop51ColorRGB
 90
-16777216
102
RTVSPost2010PropOp51
 70
     0
102
RTVSPost2010Prop52
140
1.0
102
RTVSPost2010PropOp52
 70
     0
102
RTVSPost2010Prop53
 90
        2
102
RTVSPost2010PropOp53
 70
     1
102
RTVSPost2010Prop54
  1
strokes_ogs.tif
102
RTVSPost2010PropOp54
 70
     1
102
RTVSPost2010Prop55
280
     0
102
RTVSPost2010PropOp55
 70
     1
102
RTVSPost2010Prop56
140
1.0
102
RTVSPost2010PropOp56
 70
     1
102
RTVSPost2010Prop57
140
1.0
102
RTVSPost2010PropOp57
 70
     1
  0
XRECORD
  5
3E9
102
{ACAD_REACTORS
330
3E8
102
}
330
3E8
100
AcDbXrecord
280
     1
102
RTVSPost2010Prop28
280
     0
102
RTVSPost2010PropOp28
 70
     1
102
RTVSPost2010Prop29
280
     1
102
RTVSPost2010PropOp29
 70
     1
102
RTVSPost2010Prop30
280
     1
102
RTVSPost2010PropOp30
 70
     1
102
RTVSPost2010Prop31
280
     0
102
RTVSPost2010PropOp31
 70
     1
102
RTVSPost2010Prop32
280
     0
102
RTVSPost2010PropOp32
 70
     1
102
RTVSPost2010Prop33
280
     0
102
RTVSPost2010PropOp33
 70
     1
102
RTVSPost2010Prop34
280
     0
102
RTVSPost2010PropOp34
 70
     1
102
RTVSPost2010Prop35
280
     0
102
RTVSPost2010PropOp35
 70
     1
102
RTVSPost2010Prop36
280
     0
102
RTVSPost2010PropOp36
 70
     1
102
RTVSPost2010Prop37
 90
       50
102
RTVSPost2010PropOp37
 70
     1
102
RTVSPost2010Prop38
140
0.0
102
RTVSPost2010PropOp38
 70
     1
102
RTVSPost2010Prop39
140
1.0
102
RTVSPost2010PropOp39
 70
     1
102
RTVSPost2010Prop40
 90
        0
102
RTVSPost2010PropOp40
 70
     1
102
RTVSPost2010Prop41ColorIndex
 90
       18
102
RTVSPost2010Prop41ColorRGB
 90
        0
102
RTVSPost2010PropOp41
 70
     1
102
RTVSPost2010Prop42
 90
       50
102
RTVSPost2010PropOp42
 70
     1
102
RTVSPost2010Prop43
 90
        3
102
RTVSPost2010PropOp43
 70
     1
102
RTVSPost2010Prop44ColorIndex
 90
        5
102
RTVSPost2010Prop44ColorRGB
 90
      255
102
RTVSPost2010PropOp44
 70
     1
102
RTVSPost2010Prop45
280
     0
102
RTVSPost2010PropOp45
 70
     1
102
RTVSPost2010Prop46
 90
       50
102
RTVSPost2010PropOp46
 70
     1
102
RTVSPost2010Prop47
 90
       50
102
RTVSPost2010PropOp47
 70
     1
102
RTVSPost2010Prop48
 90
       50
102
RTVSPost2010PropOp48
 70
     1
102
RTVSPost2010Prop49
280
     0
102
RTVSPost2010PropOp49
 70
     1
102
RTVSPost2010Prop50
 90
       50
102
RTVSPost2010PropOp50
 70
     1
102
RTVSPost2010Prop51ColorIndex
 90
      256
102
RTVSPost2010Prop51ColorRGB
 90
-16777216
102
RTVSPost2010PropOp51
 70
     0
102
RTVSPost2010Prop52
140
1.0
102
RTVSPost2010PropOp52
 70
     0
102
RTVSPost2010Prop53
 90
        2
102
RTVSPost2010PropOp53
 70
     1
102
RTVSPost2010Prop54
  1
strokes_ogs.tif
102
RTVSPost2010PropOp54
 70
     1
102
RTVSPost2010Prop55
280
     0
102
RTVSPost2010PropOp55
 70
     1
102
RTVSPost2010Prop56
140
1.0
102
RTVSPost2010PropOp56
 70
     1
102
RTVSPost2010Prop57
140
1.0
102
RTVSPost2010PropOp57
 70
     1
  0
XRECORD
  5
401
102
{ACAD_REACTORS
330
400
102
}
330
400
100
AcDbXrecord
280
     1
102
RTVSPost2010Prop28
280
     0
102
RTVSPost2010PropOp28
 70
     1
102
RTVSPost2010Prop29
280
     1
102
RTVSPost2010PropOp29
 70
     1
102
RTVSPost2010Prop30
280
     1
102
RTVSPost2010PropOp30
 70
     1
102
RTVSPost2010Prop31
280
     0
102
RTVSPost2010PropOp31
 70
     1
102
RTVSPost2010Prop32
280
     0
102
RTVSPost2010PropOp32
 70
     1
102
RTVSPost2010Prop33
280
     0
102
RTVSPost2010PropOp33
 70
     1
102
RTVSPost2010Prop34
280
     0
102
RTVSPost2010PropOp34
 70
     1
102
RTVSPost2010Prop35
280
     0
102
RTVSPost2010PropOp35
 70
     1
102
RTVSPost2010Prop36
280
     0
102
RTVSPost2010PropOp36
 70
     1
102
RTVSPost2010Prop37
 90
       50
102
RTVSPost2010PropOp37
 70
     1
102
RTVSPost2010Prop38
140
0.0
102
RTVSPost2010PropOp38
 70
     1
102
RTVSPost2010Prop39
140
1.0
102
RTVSPost2010PropOp39
 70
     1
102
RTVSPost2010Prop40
 90
        0
102
RTVSPost2010PropOp40
 70
     1
102
RTVSPost2010Prop41ColorIndex
 90
       18
102
RTVSPost2010Prop41ColorRGB
 90
        0
102
RTVSPost2010PropOp41
 70
     1
102
RTVSPost2010Prop42
 90
       50
102
RTVSPost2010PropOp42
 70
     1
102
RTVSPost2010Prop43
 90
        3
102
RTVSPost2010PropOp43
 70
     1
102
RTVSPost2010Prop44ColorIndex
 90
        5
102
RTVSPost2010Prop44ColorRGB
 90
      255
102
RTVSPost2010PropOp44
 70
     1
102
RTVSPost2010Prop45
280
     0
102
RTVSPost2010PropOp45
 70
     1
102
RTVSPost2010Prop46
 90
       50
102
RTVSPost2010PropOp46
 70
     1
102
RTVSPost2010Prop47
 90
       50
102
RTVSPost2010PropOp47
 70
     1
102
RTVSPost2010Prop48
 90
       50
102
RTVSPost2010PropOp48
 70
     1
102
RTVSPost2010Prop49
280
     0
102
RTVSPost2010PropOp49
 70
     1
102
RTVSPost2010Prop50
 90
       50
102
RTVSPost2010PropOp50
 70
     1
102
RTVSPost2010Prop51ColorIndex
 90
      256
102
RTVSPost2010Prop51ColorRGB
 90
-16777216
102
RTVSPost2010PropOp51
 70
     0
102
RTVSPost2010Prop52
140
1.0
102
RTVSPost2010PropOp52
 70
     0
102
RTVSPost2010Prop53
 90
        2
102
RTVSPost2010PropOp53
 70
     1
102
RTVSPost2010Prop54
  1
strokes_ogs.tif
102
RTVSPost2010PropOp54
 70
     1
102
RTVSPost2010Prop55
280
     0
102
RTVSPost2010PropOp55
 70
     1
102
RTVSPost2010Prop56
140
1.0
102
RTVSPost2010PropOp56
 70
     1
102
RTVSPost2010Prop57
140
1.0
102
RTVSPost2010PropOp57
 70
     1
  0
ENDSEC
  0
EOF
